Solitude Aeturnus - The 9th Day Awakening Chords & Tabs

 

The 9th Day Awakening Chords & Tabs

Solitude Aeturnus Chords & Tabs

Version: 1 Type: Bass Tab 0 ratings
1 star 2 stars 3 stars 4 stars 5 stars
comments

The 9th Day Awakening Bass Tab

   
Author/Artist: Solitude Aeturnus
Title: The 9Th Day: Awakening
Album: Through The Darkest Hour
Transcribed by: AeNaoN
Email: Aenaonrg@Hotmail.com


Standard Tuning (G,D,A,E)

INTRO/VERSE
-----------------------------------------------------------------
-----------------------------------------------------------------
-----------------------------------------------------------------
-4--0-0-0-0-0-0-0-0-0-0-4-3-4-5-7---8--4-0-0-0-0-0-0-0-4\3-3\2-1-
                                                                              

BRIDGE
-----------------------------------------------
-----------------------------------------------
-----------------------------------------------
-4-6-6--66--4-6-6--66--4-6-6--66--8--8--6-4-3--
                                                                              
[ Tab from: http://www.guitartabs.cc/tabs/s/solitude_aeturnus/the_9th_day_awakening_btab.html ]
CHORUS
Play the notes fast here (except 0)
-----------------------------
-----------------------------
--------------7---5---3---0--
-7----5--7-------------------
 ^^^^^^^^^^^^^^^^^^^^^^^^^                                                                        

GUITAR SOLO
The bass here plays with the drums.It just fills the space.I find this
part preety good,but you can play something on your own.
-------------------
-------------------
-------------------
-2--2-2--2-2-2-3-4-
                                                                              

ENDING
----------------------------------------------
----------------------------------------------
-------------7------------5-7-5---3-3----1-1--
-0--4-5-4-2-----0--4-5-4----------------------     

Song Structure
--------------
It's easy and I'm too lazy to count.Find it yourself :)

Any suggestions,mistakes etc mail me at Aenaonrg@Hotmail.com
Comments