Solitude Aeturnus - Pain Chords & Tabs

 

Pain Chords & Tabs

Solitude Aeturnus Chords & Tabs

Version: 1 Type: Bass Tab 0 ratings
1 star 2 stars 3 stars 4 stars 5 stars
comments

Pain Bass Tab

Bass Tab For:

Artist:Solitude Aeturnus
Song:Pain
Album:Through The Darkest Hour

Alright,this is my first tab and I think it's not that bad.
Please if anyone has any comments send me a mail at: Abbey_Of_Dreams@Hotmail.com
The notes with () can be skipped...

INTRO
---------------------------------------------------
---------------------------------------------------
---------------------------------------------------
-0--0-0--0-0--0-5--5-0--0-0--0-0--0-5--5-0---------

                                          Guitar joins here
-----------------------------------------!----------
-----------------------------------------!----------
-----------------------------------------!----------
-0--0-0-0--0-0-0--0-5--5-0--0-0-0--0-0-0-!-0-5--5-0-
[ Tab from: http://www.guitartabs.cc/tabs/s/solitude_aeturnus/pain_btab.html ]
--------------------------------
-------------------------------- 
--------------------------------  X4 
-0--2-2-1--0--2-2-1--0-5--5-0---


      VERSE
-----!--------------------------
-----!--------------------------
-----!--------------------------  X4
-4-5-!-4-5-6-5-4-5--4-5-6-5-4-3-

BRIDGE
--------------------------------
--------------------------------
--------------------------------
-0--0--2-2-1--0--2-2-1--0-5--6--

CHORUS
--------------------------------
--------------------------------
--------------------------------  X4
-4-4-4-3-2-(1)-4-4-4-5-6-(7)----
 ^^^^^^^^^^^^^^^^^^^^^^^^^^^
 Play as fast as you want.(for example,play the -4-4-4- part like -444444444-)

Play Solo as Chorus with some changes like:
--------------------------------
--------------------------------
---------------4-4-4-5-6-(7)----
-4-4-4-3-2-(1)------------------

You'll find it yourself it's easy.I Haven't transfigured the other part yet...
Comments