Soilwork - Skin By Skin Chords & Tabs

 

Skin By Skin Chords & Tabs

Soilwork Chords & Tabs

Version: 1 Type: Tab 0 ratings
1 star 2 stars 3 stars 4 stars 5 stars
comments

Skin By Skin Tab

                     SOILWORK - Skin by Skin
                       From "Steelbath Suicide"
                              Version 1.0

Transcribed by: Mike Iuzzolino

For Questions, Comments, Corrections, Requests
please contact at metalunix@yahoo.com

.  - palm mute                          /  - slide up to
\  - slide down to                      ~  - vibrato
"  - tremelo picking       // with p above - Pick Scape
p  - pull off                           h  - hammer-on
r  - release bend	                b  - bend


Soilwork - A Predator's Portrait

Tune 2.5 steps down (BEADGB)




 0:00 - 0:09
       Riff  1A
                       P1,P3          P2           P4
|------------------|-----------|--------------|----------|
|------------------|-----------|--------------|----------|
|------------------|-----------|--------------|----------| Gtr I
|-------------9----|-----------|--------------|----------|
|--2------7-----10-|-----------|----------10--|-7-7-9-10-|
|--0--0-0---0------|-0-0-7-8-7-|--0-0-7-8-----|----------|
      . .   .        . .          . .


 0:09 - 0:27
       Riff 2A                             (2x)
|-----------------------------------------------|
|-----------------------------------------------|
|-------------------------------------------7---| Gtr I
|----7--5-5---5-7-5----------5-4-------5--0---5-| + Gtr II
|-2--5--3-2---3-5-3--2--5-5--3-2---2-3----------|
|-0------------------0--3-2---------------------|



 0:27 - 0:45
        Riff 3A (2x)
                      P1,P3          P2             P4
|---------------|--------------|---------------|---------------|
|---------------|--------------|---------------|---------------|
|---------------|--------------|---------------|-----------7---| Gtr I
|-------------9-|--------------|---------------|------5--0---5-| + Gtr II
|--2------7-----|-10-----------|-10---------10-|--2-3----------|
|--0--0-0---0---|----0-0-7-8-7-|----0-0-7-8----|---------------|
      . .   .        . .            . .


 0:46 - 0:57
      Riff 4A
|--------------------------------|------|----------|
|--------------------------------|------|----------|
|--------------------------------|------|----------| Gtr I
|-2-------2-------2-------2------|------|----------| + Gtr II
|-2--2-2--2--2-2--2--2-2--2--2-2-|------|--p----p--|
|-0--0-0--0--0-0--0--0-0--0--0-0-|-3AH~-|-5-3--5-3-|
     . .     . .     . .     . .

 0:58 - 1:13
      Riff 5A (2x)
|-------------------------------------------------------------------------------|
|-------------------------------------------------------------------------------|
|-------------------------------------------------------------------------(4)---| Gtr I
|-4-----4-------4---------4-------4---------4-------4---------4-----4-----(2)---|
|-2-2-2-2-2-2-2-2-2-2-2-2-2-2-2-2-2-2-2-2-2-2-2-2-2-2-2-2-2-2-2-2-2-2-----------|
|-------------------------------------------------------------------------------|
|
|-------------------------------------------------------------------------------|
|-------------------------------------------------------------------4---4-7-6-4-|
|---------------------------------------------------------------------4---------| Gtr II
|-4-----4-------4---------4-------4---------4------4----------x/----------------|
|-2-----2-------2---------2-------2---------2------2----------x/----------------|
|-------------------------------------------------------------------------------|
[ Tab from: http://www.guitartabs.cc/tabs/s/soilwork/skin_by_skin_tab.html ]
 1:13 - 1:36
      Riff 6A
|-------------------------------------------------------------------------------|
|-4---4-7-6-4-----4---4---7---6---4---4-7-6-4----4---4---7---6--2-----2-----2---|
|---4---------------4---------------4--------------4--------------2-2---2-2-----| Gtr I
|-------------------------------------------------------------------------------|
|-------------------------------------------------------------------------------|
|-------------------------------------------------------------------------------|
|
|-------------------------------------------------------------------------------|
|-------------------------------------------------------------------------------|
|-4-------------------------------------------------------------2---------------| Gtr II
|-2-------------------------------5-----------------------------0---------------|
|---------------------------------3---------------------------------------------|
|-------------------------------------------------------------------------------|

                                     P1    P2
|--------------------------------|-------|---|
|------2---4---2-----2-----2-----|-2-4-2-|---|
|-2-2------------2-2---2-2---2-2-|-------|-4-| Gtr I
|--------------------------------|-------|-2-|
|--------------------------------|-------|---|
|--------------------------------|-------|---|
|
|----------------------------------------|---|
|----------------------------------------|---|
|---(2)-------------2-----------(2)------|-4-| Gtr II
|---(0)-------------0-----------(0)------|-2-|
|----------------------------------------|---|
|----------------------------------------|---|

 1:37 - 1:47                         1:47 - 1:58
      Riff 7A              (4x)           7B
|---------------------------------|---------------|
|---------------------------------|----Same-------|
|-------*-------------------------|------as-------|
|-------9-------9-------7-------8-|--------7A-----|
|-------7-------7-------9-------6-|---------but---|
|-0-0-0---0-0-0---0-0-0---0-0-0---|------see-note-|
  . . .   . . .   . . .   . . .

* - Let chords sorta ring out in Riff 7A.
* - Gtr I plays 7A alone twice then gtr II comes in 3rd time.
* - 7B is same as 7A but dont let chords ring. Only on the second and fourth
    times you go threw the riff let the last chord ring.


 1:58 - 2:15
      Riff 8A                                                        (4x)
|---------------------------------------------------------------------------|
|---------------------------------------------------------------------------|
|---------------------------------------------------------------------------|
|---------------------------------------p-----p-----p------p-----p-----p----|
|-----10---9---10---12---10---9---10---3-0-0-3-0-0-3-0-0--5-2-2-5-2-2-5-2-2-|
|-0-0----0---0----0----0----0---0-------------------------------------------|

Riff 7A - 2x (2:15 - 2:20)
Riff 7B - 2x (2:20 - 2:25)


 2:26 - 2:35
  Solo
|-------------|
|-------------|
|-------------|
|----?-?------|
|-------------|
|-------------|


 2:35 - 2:45
|-20fb~-20fbr19-22fb~-----p--h-----------p--h-----------p--h-----------p--h----------------------|
|-----------------------14-11-14-10-11-14-11-14-10-11-14-11-14-10-11-14-11-14-----?-?------12~---|
|------------------------------------------------------------------------------------------------|
|------------------------------------------------------------------------------------------------|
|------------------------------------------------------------------------------------------------|
|------------------------------------------------------------------------------------------------|



 2:46 - 2:55                                   2:56 - 3:05
|------------------------------------15B~\-|----------------|
|-/14-------/14------------/14-------------|----------------|
|-----12b~------12-11-9b~------12b~--------|----------------|
|------------------------------------------|----------------|
|------------------------------------------|----------------|
|------------------------------------------|----------------|

Guitar II under solo - ???


 Riff 3A - 2x (3:06 - 3:27)

Visit MetalTabs.com for more metal tablatur
Comments