Soil - Unreal Chords & Tabs

 

Unreal Chords & Tabs

Soil Chords & Tabs

Version: 3 Type: Tab 0 ratings
1 star 2 stars 3 stars 4 stars 5 stars
comments

Unreal Tab

Band:  Soil
Song:  Unreal
Album: Scars
Transcribed by: Dean K. (projectwyze13@hotmail.com)
Tuning:  CGCFAD


Intro 2x
(No Distortion)
|------------------------------------------------|
|------------------------------------------------|
|------------------------------------------------|
|--8--7-7-7--8--7-7-7--8-7-7-7---8-8-8-8---5---5-|
|--5--5-5-5--5--5-5-5--5-5-5-5---6-6-6-6---3---3-|
|--5--5-5-5--5--5-5-5--5-5-5-5---6-6-6-6---3---3-|

(Distortion)
|---------------------------------------|
|---------------------------------------|
|---------------------------------------|
|--7--7-7-7--7--7-7-7--7-7---8-8----5-5-|
|--5--5-5-5--5--5-5-5--5-5---6-6----3-3-|
|--5--5-5-5--5--5-5-5--5-5---6-6----3-3-|

[ Tab from: http://www.guitartabs.cc/tabs/s/soil/unreal_tab_ver_3.html ]
Verse 4x (No Distortion)
|------------------------------------------------|
|------------------------------------------------|
|------------------------------------------------|
|--8--7-7-7--8--7-7-7--8-7-7-7---8-8-8-8---5---5-|
|--5--5-5-5--5--5-5-5--5-5-5-5---6-6-6-6---3---3-|
|--5--5-5-5--5--5-5-5--5-5-5-5---6-6-6-6---3---3-|


Chorus 4x (Distortion)
|---------------------------------------|
|---------------------------------------|
|---------------------------------------|
|--7--7-7-7--7--7-7-7--7-7---8-8----5-5-|
|--5--5-5-5--5--5-5-5--5-5---6-6----3-3-|
|--5--5-5-5--5--5-5-5--5-5---6-6----3-3-|


Breakdown 4x (No Distortion)
|-------------------|
|-------------------|
|-------------------|
|--7------5------8--|
|--5------3------6--|
|--5------3------6--|


(Distortion)
|-------------------|
|-------------------|
|-------------------|
|--7------5------8--|
|--5------3------6--|
|--5------3------6--|
Comments