Soil - Understanding Me Chords & Tabs

 

Understanding Me Chords & Tabs

Soil Chords & Tabs

Version: 1 Type: Bass Tab 0 ratings
1 star 2 stars 3 stars 4 stars 5 stars
comments

Understanding Me Bass Tab

Song: Understanding Me
Artist: Soil
Album: Scars

Verse
G  -------------------------------|
D  -------------------------------|
A  -------------------------------|        x9
E  -------------------------------|
Bb-00-0-0/2-00-0-0/2--------------|

Pre-chorus
G  --------------------------|
D  --------------------------|
A  --------------------------|
E  --------------------------|
Bb-5-4-5-0-----5-4-5-0-------|

Chorus
G  ------------------------------------------------|
D  ------------------------------------------------|
A  ------------------------------------------------|
E  ------------------------------------------------|
Bb-0-0-0-0-0-5--0-0-0-0-0-50-0-0-0-0-5--5-4-5-00--|

Verse
G  -------------------------------|
D  -------------------------------|
A  -------------------------------|        x9
E  -------------------------------|
Bb-00-0-0/2-00-0-0/2--------------|
[ Tab from: http://www.guitartabs.cc/tabs/s/soil/understanding_me_btab.html ]
Pre-chorus
G  --------------------------|
D  --------------------------|
A  --------------------------|
E  --------------------------|
Bb-5-4-5-0-----5-4-5-0-------|

Chorus
G  -------------------------------------------------|
D  -------------------------------------------------|
A  -------------------------------------------------|
E  -------------------------------------------------|
Bb-0-0-0-0-0-5--0-0-0-0-0-5--0-0-0-0-0-5--5-4-5-00--|

Strange bit
G  -------------------------|
D  -------------------------|
A  -------------------------|
E  --------0-----0----------|
Bb-0-0-0--5-3---5-3-0-------|

Chorus
G  -------------------------------------------------------|
D  -------------------------------------------------------|
A  -------------------------------------------------------|          x2
E  -------------------------------------------------------|
Bb-0-0-0-0-0-5--0-0-0-0-0-5--0-0-0-0-0-5--5-4-5-00--------|

Outro
G  --------------------|
D  --------------------|
A  --------------------|      x2
E  --------------------|
Bb-5-4-5-00------------|
Comments