Soil - Deny Me Chords & Tabs

 

Deny Me Chords & Tabs

Soil Chords & Tabs

Version: 1 Type: Tab 0 ratings
1 star 2 stars 3 stars 4 stars 5 stars
comments

Deny Me Tab

   
-----------------------------------------------------------------------------
			     Deny Me - Soil
-----------------------------------------------------------------------------
Tabbed by: 666Disturbed666
Email: marriott666@Hotmail.com

Tuning:Drop D

Intro
e|-----------------------------------------------------------------------|
B|-----------------------------------------------------------------------|
G|-----------------------------------------------------------------------|
D|-----------------------------------------------------------------------|x4)
A|-3h4p3-3h4p3--2---3h4p3-3h4p3--8---------------------------------------|
D|-----------------------------------------------------------------------|

Intro (After above has been played twice)
e|--------------------------------------------------------------------------|
B|--------------------------------------------------------------------------|
G|--------------------------------------------------------------------------|
D|-4------------------------------------------------------------------------|
A|-4------------------------------------------------------------------------|
D|-4------------------------------------------------------------------------|
[ Tab from: http://www.guitartabs.cc/tabs/s/soil/deny_me_tab.html ]
Verse
e|--------------------------------------------------------------------------|
B|--------------------------------------------------------------------------|
G|--------------------------------------------------------------------------|
D|-444---444---7--6--------444-xx-xx-xx--444---7--6-------------------------|
A|-444---444---7--6--(x2)--444-xx-xx-xx--444---7--6--(x2)-------------------|
D|-444---444---7--6--------444-xx-xx-xx--444---7--6-------------------------|

Chorus Guitar 1
e|--------------------------------------------------------------------------|
B|--------------------------------------------------------------------------|
G|--------------------------------------------------------------------------|
D|-9------10-------4--3----4--3---------------------------------------------|
A|-9------10-------4--3----4--3---------------------------------------------|
D|-9------10-------4--3----4--3---------------------------------------------|

Chorus Guitar 2
e|--------------------------------------------------------------------------|
B|--------------------------------------------------------------------------|
G|--------------------------------------------------------------------------|
D|-9------10-------5--4----5--4---------------------------------------------|
A|-9------10-------3--2----3--2---------------------------------------------|
D|-9------10----------------------------------------------------------------|



| /  slide up
| \  slide down
| h  hammer-on
| p  pull-off
| ~  vibrato
| +  harmonic
| x  Mute note
=============================================================================
Comments