Soil - Broken Wings Chords & Tabs

 

Broken Wings Chords & Tabs

Soil Chords & Tabs

Version: 1 Type: Tab 0 ratings
1 star 2 stars 3 stars 4 stars 5 stars
comments

Broken Wings Tab

   
Soil - Broken Wings
Submitted By: Big_Daddy_Cool
EMail: Daren_thomas_87@hotmail.com


Tuning: Drop C (C G C F A D)this is A pretty dope song hope you like it

b= bend that note like a mother fucker
[ Tab from: http://www.guitartabs.cc/tabs/s/soil/broken_wings_tab.html ]
D|---------------------------------------------------------------------------||
A|---------------------------------------------------------------------------||
F|-----------------------b----------------------------------------------------||
C|---------3-----------3-5-5-3-5---------3------------------------------------------||
G|-3-5-3-5---5-3-5-3-5-----------3-5-3-5---5-3-5-5-3-0------------------------------------------||
C|-----------------------------------------------------6-5-3--------------------||D|---------------------------------------------------------------------------||
A|---------b------------------------------------------------------------------||
F|---------7------------------------------------------------------------------||
C|-5-7-5-7---7-5-7-4-6-5-3-5-3------------------------------------------------------------||
G|-----------------------------5-3---------------------------------------------||
C|---------------------------------------------------------------------------||D|---------------------------------------------------------------------------||
A|---------------------------------------------------------------------------||
F|---------------------------------------------------------------------------||
C|-7--3-3-4-4-5-5-6-6-----------------------------------------------------------------||
G|-7--3-3-4-4-5-5-6-6-----------------------------------------------------------------||
C|-7--3-3-4-4-5-5-6-6-----------------------------------------------------------------||
Comments