Soil - Breaking Me Down Chords & Tabs

 

Breaking Me Down Chords & Tabs

Soil Chords & Tabs

Version: 3 Type: Tab 0 ratings
1 star 2 stars 3 stars 4 stars 5 stars
comments

Breaking Me Down Tab

   
Artist: Soil
Album: Scars
Song: Breaking Me Down
Tuning: DADGBE
Transcribed By: Steve Hines

[ Tab from: http://www.guitartabs.cc/tabs/s/soil/breaking_me_down_tab_ver_3.html ]
Intro: x2
E-----------------------
B-----------------------
G-----------------------
D-----------------------
A-----------------------
D-0-3-0-0-3-0-0-3-0-3-2-
Main Riff: x4
E-----------------------
B-----------------------
G-----------------------
D-----------------------
A-0-3-0-0-3-0-0-3-0-3-2-
D-0-3-0-0-3-0-0-3-0-3-2-
Verse: x1
E---------------------------
B---------------------------
G---------------------------
D---------------------------
A-0-3-0-0-3-0-0-3-0-0-3-0-3-
D-0-3-0-0-3-0-0-3-0-0-3-0-3-
Chorus: x4
E------------------
B------------------
G------------------
D-8-8------8-8-----
A-6-6--3-0-6-6-0-3-
D------3-0-----0-3-
Verse: x1
E---------------------------
B---------------------------
G---------------------------
D---------------------------
A-0-3-0-0-3-0-0-3-0-0-3-0-3-
D-0-3-0-0-3-0-0-3-0-0-3-0-3-
Chorus: x4
E------------------
B------------------
G------------------
D-8-8------8-8-----
A-6-6--3-0-6-6-0-3-
D------3-0-----0-3-
Main Riff: x2
E-----------------------
B-----------------------
G-----------------------
D-----------------------
A-0-3-0-0-3-0-0-3-0-3-2-
D-0-3-0-0-3-0-0-3-0-3-2-
Interlude: x2
E-------------------------
B-------------------------
G-------------------------
D-5-4---------------------
A-3-2-0-3-0-0-0-0-3-0-0-0-
D-----0-3-0-0-0-0-3-0-0-0-
Interlude: x1
E-----------------------------------------------------
B-----------------------------------------------------
G-----------------------------------------------------
D-5-5-5-5-5-5-5-5-4-4-4-4-4-4-4-4---------------------
A-3-3-3-3-3-3-3-3-2-2-2-2-2-2-2-2-0-3-0-0-0-0-3-0-0-0-
D---------------------------------0-3-0-0-0-0-3-0-0-0-
  *******************************
Interlude: x1
E-------------------------
B-------------------------
G-------------------------
D-5-5-5-5-5-5-5-5-4-4-4-4-
A-3-3-3-3-3-3-3-3-2-2-2-2-
D-------------------------
  ***************
Verse: x1
E---------------------------
B---------------------------
G---------------------------
D---------------------------
A-0-3-0-0-3-0-0-3-0-0-3-0-3-
D-0-3-0-0-3-0-0-3-0-0-3-0-3-
Chorus: x8
E------------------
B------------------
G------------------
D-8-8------8-8-----
A-6-6--3-0-6-6-0-3-
D------3-0-----0-3-
Main Riff: x4
E-----------------------
B-----------------------
G-----------------------
D-----------------------
A-0-3-0-0-3-0-0-3-0-3-2-
D-0-3-0-0-3-0-0-3-0-3-2-
Outro: x1
E-------
B-------
G-------
D-------
A-0-3-0-
D-0-3-0-

I am certain that this is 100% correct. If you have any
questions or comments email me at steve_likes_korn@hotmail.com


Comments