Soil - Breaking Me Down Chords & Tabs

 

Breaking Me Down Chords & Tabs

Soil Chords & Tabs

Version: 1 Type: Bass Tab 0 ratings
1 star 2 stars 3 stars 4 stars 5 stars
comments

Breaking Me Down Bass Tab

   
Soil - Breaking Me Down
Album: Scars
Tuning: D A D G
Tabbed By: Dean K. (projectwyze13@hotmail.com)

Intro (0:07)
|------------|---------|
|------------|---------|
|---4-----4--|---4-43~-|
|-6--6--6--6-|-6--6----|

Verse (0:19)
|------|    |-----|
|------|    |-----|
|------|    |-----|
|-6-66-| x4 |--6--|

Chorus (0:32)
|-----------|----------|
|-----------|----------|
|-5h7776666-|----------|
|-----------|-44442222-|
[ Tab from: http://www.guitartabs.cc/tabs/s/soil/breaking_me_down_btab.html ]
|-----------|----------|
|-----------|----------|
|-5h7776666-|-33333333-|
|-----------|----------|

Bridge (1:18)
|---------|----------------|
|---------|----------------|
|-7~--4~--|----------------|
|---------|-66-6-6-666-6-6-| x2

|------------------|----------------|
|------------------|----------------|
|-7777777744444444-|----------------|
|------------------|-66-6-6-666-6-6-|

|------------------|
|------------------|
|-7777777744444444-|
|------------------|
Comments