Soft Machine - Box 25/4 Lid Chords & Tabs

 

Box 25/4 Lid Chords & Tabs

Soft Machine Chords & Tabs

Version: 1 Type: Bass Tab 0 ratings
1 star 2 stars 3 stars 4 stars 5 stars
comments

Box 25/4 Lid Bass Tab

#----------------------------------PLEASE NOTE---------------------------------#
#This file is the author's own work and represents their interpretation of the #
#song. You may only use this file for private study, scholarship, or research. #
#------------------------------------------------------------------------------##

Soft Machine
Box 25/4 Lid 
From "Volume 1"
Written by Hugh Hopper and Mike Ratelidge

tabbed by Jeremy D. [diri6200(at)fredonia.edu]

Like the title suggests, the song is in 25/4. 
I've divided the counting into five sets of five cos it's easier like that.
The last time the riff is repeated, it (and the album) ends abruptly.

And here's the song:

G--------------0-------0-----------0-5---------------|
D----------0-------------0-------0-----2---2---2---2-|
A--0-0-----------0-----------0-0---------------------|
E----------------------------------------------------|
   1 2 3 4 5 1 2 3 4 5 1 2 3 4 5 1 2 3 4 5 1 2 3 4 5
[ Tab from: http://www.guitartabs.cc/tabs/s/soft_machine/box_254_lid_btab.html ]
G--------------0-------0-----------0-5---------------|
D----------0-------------0-------0-----2---2---2---2-|
A--0-0-----------0-----------0-0---------------------|
E----------------------------------------------------|
   1 2 3 4 5 1 2 3 4 5 1 2 3 4 5 1 2 3 4 5 1 2 3 4 5

G--------------0-------0-----------0-5---------------|
D----------0-------------0-------0-----2---2---2---2-|
A--0-0-----------0-----------0-0---------------------|
E----------------------------------------------------|
   1 2 3 4 5 1 2 3 4 5 1 2 3 4 5 1 2 3 4 5 1 2 3 4 5

G--------------0-------0-----------0-5---------------|
D----------0-------------0-------0-----2---2---2---2-|
A--0-0-----------0-----------0-0---------------------|
E----------------------------------------------------|
   1 2 3 4 5 1 2 3 4 5 1 2 3 4 5 1 2 3 4 5 1 2 3 4 5

G--------------0-------0-----------0-5---------------|
D----------0-------------0-------0-----2---2---2---2-|
A--0-0-----------0-----------0-0---------------------|
E----------------------------------------------------|
   1 2 3 4 5 1 2 3 4 5 1 2 3 4 5 1 2 3 4 5 1 2 3 4 5

G--------------0-------0-----------0-5---------------||
D----------0-------------0-------0-----2---2---2---2-||
A--0-0-----------0-----------0-0---------------------||
E----------------------------------------------------||
   1 2 3 4 5 1 2 3 4 5 1 2 3 4 5 1 2 3 4 5 1 2 3 4 5

And there you have it. And if there's any other Soft Machine fans out there, let's see some tracks!
Comments