Soft Cell - Tainted Love Chords & Tabs

 

Tainted Love Chords & Tabs

Soft Cell Chords & Tabs

Version: 2 Type: Tab 0 ratings
1 star 2 stars 3 stars 4 stars 5 stars
comments

Tainted Love Tab

                    Tainted Love - as performed by Soft
         Cell... You may have heard this great song in 'Coneheads'
                 pretty old song - transcribed by Brian S
  v          v     v     v     v
E---------------------------------------------------------------
b---------------------------------------------------------------
g---------------------8--8--------------------------------------
d---------5--5--8--8--8--8--8--10--(8)--back to beginning-------
a---------5--5--8--8--6--6--8--10--(8)--------------------------
E-(3)~~~--3--3--6--6--------6--8---(6)--------------------------
[ Tab from: http://www.guitartabs.cc/tabs/s/soft_cell/tainted_love_tab_ver_2.html ]
E--------------------------------------------------------
b--------------------------------------------------------
g--------------------8----8------------------------------
d--5--5-----8----8---8----8----8--10---------------------
a--5--5-----8----8---6----6----8--10---------------------
E--3--3-----6----6-------------6--8----------------------
   Some     times I  feel like I wanna 
   forte
E---^^-----------------------------------------------------
b---^^-----------------------------------------------------
g--^--^----------8--8--------------------------------------
d--5--5----8--8--8--8--8--10--(8)--------------------------
a--5--5----8--8--6--6--8--10--(8)--------------------------
E--3--3----6--6--------6--8---(6)--------------------------
       get away...................same thing over and over

heres a like for some fun ....
E--3-3-/6-6-/11-11--6-8~~6-------------------------------
b--3-3-/6-6-/11-11--6-8~~6-------------------------------
g--------------------------------------------------------
d--------------------------------------------------------
a--------------------------------------------------------
E--------------------------------------------------------


      
Comments