Soenen Martijn - About Love And Hate Chords & Tabs

 

About Love And Hate Chords & Tabs

Soenen Martijn Chords & Tabs

Version: 1 Type: Tab 0 ratings
1 star 2 stars 3 stars 4 stars 5 stars
comments

About Love And Hate Tab

   
'Bout Love and Hate by Soenen Martijn (01/09/01)

Transcribed by Soenen Martijn (martijnsoenen@hotmail.com) 14:49 29/01/2001

CHORDS used in this song:

        EADGBE		

F       133211		
G       355433
Em      022000
Asus2   002200
Asus4   002230
Am      002210

INTRO: (and also pickin' pattern for the verses)

       F          G            Em            Am

E |-------------------------|-------------------------|
B |---------1---------3-----|--------0-----0h1--0-----|
G |---------2---------4-----|--------0-----2----2-----|
D |-------3----0----5----0--|-----2-----0----------0--|
A |-------------------------|--2----------------------|
E |--0h1---(1)----3--(3)----|-------(0)---------------|

       F          G            Em            Am

E |-------------------------|----------------------0--|
B |---------1---------3-----|--------0-----0h1--3-----|
G |---------2---------4-----|--------0-----2----------|
D |-------3----0----5----0--|-----2-----0-------------|
A |-------------------------|--2----------------------|
E |--0h1---(1)---3---(3)----|-------(0)---------------|

       F          G            Em            Am

E |-------------------------|-------------------------|
B |---------1---------3-----|--------0-----0h1--0-----|
G |---------2---------4-----|--------0-----2----2-----|
D |-------3----0----5----0--|-----2-----0----------0--|
A |-------------------------|--2----------------------|
E |--0h1---(1)----3--(3)----|-------(0)---------------|
[ Tab from: http://www.guitartabs.cc/tabs/s/soenen_martijn/about_love_and_hate_tab.html ]
     F                 G       F                 G
E |-------------------------|-------------------------|
B |-----1-----1-----1--3----|-----1-----1-----1--3----|
G |-----2-----2-----2--4----|-----2-----2-----2--4----|
D |--------------3----------|--------------3----------|
A |--------3----------------|--------3----------------|
E |--1-----------------3----|--1-----------------3----|

VERSES

       F                        G

Well, I met her in a bar, I was drinkin' too much
        Em                         Am
and the candles on the tables were burni__n'
 F             G   Em         Am
She smiled too me, she wore a lo__ng dress
 F             G   Em              Am
She talked too me, her lips seemed so__ftly
 F           G          Em           Am
She lights a cigarette, tells me her se__crets

 F             G     Em       Am
'Bout love and hate, hope and fa__ith
 F             G     Em       Am
'Bout love and hate, hope and fa_____ith

 F             G     Em       Am

And in that bar, my friends came in
They told me they were blo__win'
We all got high, saw Dali on the wa__lls and,
My girl, she laughed: "How are you do__ing ?"
She lights a joint, blows me her se__crets

'Bout love and hate, hope and fa__ith
'Bout love and hate, hope and fa_____ith

		   Now she's gone,
I don't know where she's go__ing
The rain comes pooring down, over my shou__lders
I don't know why, the sun outthere is risin'
We never wondered, I guess I'm drea__min'

'Bout love and hate, hope and fa__ith
'Bout love and hate, hope and fa_____ith

 Her love and hate, just fade awa__y
 Her love and hate,      fade awa_____y
 Her love and hate, just fade awa__y

 CODA:

        F         G            Em          Am         Am       

E |-------------------------|-------------------------0--|
B |---------1---------3-----|--------0----------------1--|
G |---------2---------4-----|--------0----------------2--|
D |-------3----0----5----0--|-----2-----0--4h5--4--2--2--|
A |-------------------------|--2----------------------0--|
E |--0h1---(1)----3--(3)----|-------(0)------------------|
Comments