Sodom - Remember The Fallen Chords & Tabs

 

Remember The Fallen Chords & Tabs

Sodom Chords & Tabs

Version: 1 Type: Tab 0 ratings
1 star 2 stars 3 stars 4 stars 5 stars
comments

Remember The Fallen Tab

   
Sodom - Remember The Fallen
Album: Agent Orange

e|----------------|
b|----------------|
g|----------------|
d|-2--------------|3x
a|-2-3-2----------|
E|-0-----3-5-3-2--|

e|---------------------|
b|---------------------|
g|---------------------|
d|-3-3-3-3-------------|2x
a|-3-3-3-3-3-2---------|
E|-1-1-1-1-----3-5-3-2-|

                 use a trembolo to bend this
e|--------------------------------------------------|
b|--------------------------------------------------|
g|--------------------------------------------------|
d|-2-x-x-2-x-x-2-x-x-2b-----------------3-3-3-5-5-5-|4x
a|-2-x-x-2-x-x-2-x-x-2b-0-2b-x-x-2b-x-x-3-3-3-5-5-5-|
E|-0-x-x-0-x-x-0-x-x-0b-----------------1-1-1-3-3-3-|
after 2 times this rifs is played, the singing begins

e|-----------------------------------------------|
b|-----------------------------------------------|
g|-----------------------------------------------|
d|-4-x-x-4-x-x-4-x-x-4-8-7-x-x-7-x-x-5-5-5-7-7-7-|2x
a|-4-x-x-4-x-x-4-x-x-4-8-7-x-x-7-x-x-5-5-5-7-7-7-|
E|-2-x-x-2-x-x-2-x-x-2-6-5-x-x-5-x-x-3-3-3-5-5-5-|
they left their life in fire

e|--------------------------------------------------|
b|--------------------------------------------------|
g|--------------------------------------------------|
d|-2-x-x-2-x-x-2-x-x-2b-----------------3-3-3-5-5-5-|2x
a|-2-x-x-2-x-x-2-x-x-2b-0-2b-x-x-2b-x-x-3-3-3-5-5-5-|
E|-0-x-x-0-x-x-0-x-x-0b-----------------1-1-1-3-3-3-|
remember the fallen

e|-----------------------------------------------|
b|-----------------------------------------------|
g|-----------------------------------------------|
d|-4-x-x-4-x-x-4-x-x-4-8-7-x-x-7-x-x-5-5-5-7-7-7-|2x
a|-4-x-x-4-x-x-4-x-x-4-8-7-x-x-7-x-x-5-5-5-7-7-7-|
E|-2-x-x-2-x-x-2-x-x-2-6-5-x-x-5-x-x-3-3-3-5-5-5-|
play under solo

e|------------------------------------------------------------|
b|------------------------------------------------------------|
g|------------------------------------------------------------|
d|-2-2-2-2-2-2-2-2-2-2-2-2-2-2-3-3-3-3-3-3-3-6-6-6-6-5-5-5-5--|4x
a|-2-2-2-2-2-2-2-2-2-2-2-2-2-2-3-3-3-3-3-3-3-6-6-6-6-5-5-5-5--|
E|-0-0-0-0-0-0-0-0-0-0-0-0-0-0-1-1-1-1-1-1-1-4-4-4-4-3-3-3-3--|
to the command
[ Tab from: http://www.guitartabs.cc/tabs/s/sodom/remember_the_fallen_tab.html ]
e|-------------|--|---|
b|-------------|--|---|
g|-------------|--|---|
d|-2--3--6--5--|2x|-2-|
a|-2--3--6--5--|--|-2-|
E|-0--1--4--3--|--|-0-|

e|--------------------------------------------------|
b|--------------------------------------------------|
g|--------------------------------------------------|
d|-2-x-x-2-x-x-2-x-x-2b-----------------3-3-3-5-5-5-|4x
a|-2-x-x-2-x-x-2-x-x-2b-0-2b-x-x-2b-x-x-3-3-3-5-5-5-|
E|-0-x-x-0-x-x-0-x-x-0b-----------------1-1-1-3-3-3-|

e|-----------------------------------------------|
b|-----------------------------------------------|
g|-----------------------------------------------|
d|-4-x-x-4-x-x-4-x-x-4-8-7-x-x-7-x-x-5-5-5-7-7-7-|2x
a|-4-x-x-4-x-x-4-x-x-4-8-7-x-x-7-x-x-5-5-5-7-7-7-|
E|-2-x-x-2-x-x-2-x-x-2-6-5-x-x-5-x-x-3-3-3-5-5-5-|

e|--------------------------------------------------|
b|--------------------------------------------------|
g|--------------------------------------------------|
d|-2-x-x-2-x-x-2-x-x-2b-----------------3-3-3-5-5-5-|2x
a|-2-x-x-2-x-x-2-x-x-2b-0-2b-x-x-2b-x-x-3-3-3-5-5-5-|
E|-0-x-x-0-x-x-0-x-x-0b-----------------1-1-1-3-3-3-|

e|-----------------------------------------------|
b|-----------------------------------------------|
g|-----------------------------------------------|
d|-4-x-x-4-x-x-4-x-x-4-8-7-x-x-7-x-x-5-5-5-7-7-7-|2x
a|-4-x-x-4-x-x-4-x-x-4-8-7-x-x-7-x-x-5-5-5-7-7-7-|
E|-2-x-x-2-x-x-2-x-x-2-6-5-x-x-5-x-x-3-3-3-5-5-5-|
play under solo

e|------------------------------------------------------------|
b|------------------------------------------------------------|
g|------------------------------------------------------------|
d|-2-2-2-2-2-2-2-2-2-2-2-2-2-2-3-3-3-3-3-3-3-6-6-6-6-5-5-5-5--|4x
a|-2-2-2-2-2-2-2-2-2-2-2-2-2-2-3-3-3-3-3-3-3-6-6-6-6-5-5-5-5--|
E|-0-0-0-0-0-0-0-0-0-0-0-0-0-0-1-1-1-1-1-1-1-4-4-4-4-3-3-3-3--|
their tormented souls will never rest

e|-------------|--|---|-------|
b|-------------|--|---|-------|
g|-------------|--|---|-------|
d|-2--3--6--5--|2x|-2-|-6-5-2-|
a|-2--3--6--5--|--|-2-|-6-5-2-|
E|-0--1--4--3--|--|-0-|-4-3-0-|

if you have any questions, hear mistakes, or just want to talk about fucking good thrash music
mail; thrash_till_arrebar@hotmail.com
Comments