Sodom - Nuclear Winter Chords & Tabs

 

Nuclear Winter Chords & Tabs

Sodom Chords & Tabs

Version: 1 Type: Tab 0 ratings
1 star 2 stars 3 stars 4 stars 5 stars
comments

Nuclear Winter Tab

   
"Nuclear Winter"
by Sodom
from the album PERSECUTION MANIA
Transcribed by Andres Usma
wuv@col2.telecom.com.co

INTRO (play 2 1/2 times before lyrics start)
E----------------------------------------------------------------------
B----------------------------------------------------------------------
G----------------------------------------------------------------------
D-6--------7--------6--------7-----------------------------------------
A-4--4-4-4-4--4-4-4-4--4-4-4-4--4-4-4----------------------------4---5-
E-------------------------------------3^2--0--0--2--0--0--2--0---2---3-

E----------------------------------------------------------------------
B----------------------------------------------------------------------
G----------------------------------------------------------------------
D-6--------7--------6--------7-----------------------------------------
A-4--4-4-4-4--4-4-4-4--4-4-4-4--4-4-4----------------------------3-----
E-------------------------------------3^2--0--0--2--0--0--2--0-0-1-----

[REPEAT INTRO while singing first verse]

BRIDGE (play 4 times)
E----------------------------------------------------------------------
B----------------------------------------------------------------------
G----------------------------------------------------------------------
D----------------------------------------------------------------------
A-2---------------1-------------------------------------2^3-2^3--------
E-0-0-0-0-0-0-0-0---0-0-0-0-0-0-0-0-1-0-0-0-0-0-0-0-0-0----------2-^3--

RIFF 1 (let ring until drums start to play)
E-------------------------------
B-------------------------------
G-------------------------------
D-------------------------------
A-5-----------------------------
E-3-----------------------------

[REPEAT INTRO to sing second verse]
[REPEAT BRIDGE]
[REPEAT RIFF 1 and let ring longer until the RIFF 2 starts]

RIFF 2 (play 5 times)
E---------------------------------------------------------------------
B---------------------------------------------------------------------
G---------------------------------------------------------------------
D--------------------------------------------------------4/5--5-5-5\4-
A--4/5--5-5-5\4--4-4-4/5--5-5-5\3--3-3-4/5--5-5-5\4--4-4-2/3--3-3-3\2-
E--2/3--3-3-3\2--2-2-2/3--3-3-3\1--1-1-2/3--3-3-3\2--2-2--------------

RIFF 2A (play 4 times)
E---------------------------------------------------------------------
B---------------------------------------------------------------------
G---------------------------------------------------------------------
D--------------------------------------------------------4/5--5-5-5\4-
A--4/5--5-5-5\4--4-4-4\3--3-3-3\2--2-2-4/5--5-5-5\4--4-4-2/3--3-3-3\2-
E--2/3--3-3-3\2--2-2-2\1--1-1-1\0--0-0-2/3--3-3-3\2--2-2--------------

FIG. 1 
E---------------------------------------------------------------------
B---------------------------------------------------------------------
G---------------------------------------------------------------------
D---------------------------------------------------------------------
A---------------------------------------------------------------------
E-3-3-3-3-3-3-3-3-3-3-3-3-3-3-3-3-3-3-2-2-2-2-2-2-2-2-1-1-1-1-1-1-1-1-

This part of the FIG is played with the SOLO
E---------------------------------------------------------------------
B---------------------------------------------------------------------
G---------------------------------------------------------------------
D---------------------------------------------------------------------
A---------------------------------------------------------------------
E-0-0-0-0-0-0-0-0-0-0-0-0-0-0-0-0-0-0-0-0-0-0-0-0-0-0-0-0-0-0-0-0-0-0-

SOLO 1
E---------------------------------      E----------------------------
B--15-----------------------------      B----------------**20~~~-----
G-*14^----------------------------      G-----------*16~~------------
D---------------------------------      D------*14~~-----------------
A---------------------------------      A-*14~~----------------------
E---------------------------------      E----------------------------
*lift the string up hard                *Use tremolo bar softly
                                        **Use tremolo bar hard
E----------------------------------5^----
B-*(4)\---------------/*20--2^-----------
G---------3~~4~~3~~----------------------
D----------------------------------------
A----------------------------------------
E----------------------------------------
*use tremolo bar
()natural harmonic

FIG. 2 (play 3 times, and the next one switch to the next FIG. while
playing first part)
E-------------------------------------------------------------
B-------------------------------------------------------------
G-------------------------------------------------------------
D-------------------------------------------------------------
A-----------------------------------------------------4---5---
E-0-0-0-0-0-0-0-0-2-0-0-0-0-0-0-0-0-3-0-0-0-0-0-0-0-0-2---3---

E-------------------------------------------------------------
B-------------------------------------------------------------
G-------------------------------------------------------------
D-----------------------------------------------------4---5---
A-0-0-0-0-0-0-0-0-2-0-0-0-0-0-0-0-0-3-0-0-0-0-0-0-0-0-2---3---
E-------------------------------------------------------------
[ Tab from: http://www.guitartabs.cc/tabs/s/sodom/nuclear_winter_tab.html ]
FIG. 3 (play 3 times)                   FIG. 3A
*These FIG. are played together several times while GTR 2 is playing.
E-----------------------------------    E------------------------------
B-----------------------------------    B------------------------------
G-----------------------------------    G------------------------------
D-----------------------------------    D------------------------------
A-2---------------------------------    A-2-------------2-------------2
E-0---0---0---0---0---0---0---0-0-0-    E-0---0---0-0-0-0---0---0-0-0-0

GTR. 2 let ring (play 4 times during FIG. 3 of GTR 1)
E-------------------------------------------------------------
B-------------------------------------------------------------
G-------------------------------------------------------------
D------------------------------3----------------------3-3-----
A-2----------------------------1----------------------1-1-----
E-0------------------------0-0--------------------------------

[repeat FIG.3 both guitars]

SOLO 2
E----------------------------------------
B--15--------------------------10--*8^---
G-*14^\----14--(12)~~-9--7--9------------
D----------------------------------------
A----------------------------------------
E----------------------------------------
*bend up       
()artificial harmonic    

E----------------------------------------------------------------------
B-13^5-8^5-12^5-8^5-13^5-8^5-12^5-8^5-13^5-8^5-12^5-8^5-13^5-8^5-15^5-8
G----------------------------------------------------------------------
D----------------------------------------------------------------------
A----------------------------------------------------------------------
E----------------------------------------------------------------------

E--------------------------------------------------------------------
B-13^5-8^5-12^5-8^5-13^5-8^5-12^5-8^5-13^5-8^5-12^5-8^5-13^5-8^5-15--
G--------------------------------------------------------------------
D--------------------------------------------------------------------
A-------------------------------------------------------------------- 
E--------------------------------------------------------------------
     
E-----------------------------*14^--------19-19-22-20-19-22-20-19-22-
B-/17~~~--15^17^15^17^15^17^15----15---17----------------------------
G--------------------------------------------------------------------
D--------------------------------------------------------------------
A--------------------------------------------------------------------
E--------------------------------------------------------------------
*bend up

E-20-19-22-20-19-22-20-------------------------------------
B----------------------20-22-20-22-20-22-------------------
G----------------------------------------20-21-20-21-20-21-
D----------------------------------------------------------
A----------------------------------------------------------
E----------------------------------------------------------

E-14-14-15-17-14-15-17-14-15-17-------------------------------------
B-------------------------------15-17-15-17-15-17-------------------
G-------------------------------------------------15-16-15-16-15-16-
D-------------------------------------------------------------------
A------------------------------------------------------------------- 
E-------------------------------------------------------------------

E----------------------------------------------------------------------
B----------------------------------------------------------------------
G-*14^---12---14~~~#11-11-12-11-12-14-11-12-11----11-12-11----11-12-11-
D---------------------------------------------14----------14-----------
A---------------------------------------------------------------------- 
E----------------------------------------------------------------------
*bend up
#this part is not exactly as it is, it's the closest way i could get.

E-------------------------------------------------------------------
B-------------------------------------------------------------------
G-*2^\----0-2-0-2-0-2-0-2-0---0-2-0-2-0-4-5-4-5-4-5-4-5-7-5-7-5-(7)-
D---------------------------2---------------------------------------
A------------------------------------------------------------------- 
E-------------------------------------------------------------------
*bend up
()artificial harmonic

E-12-15-20^12-15^12-19^12-15^12-20^12-15^12-19^12-15^12-20^12-15^12-
B-------------------------------------------------------------------
G-------------------------------------------------------------------
D-------------------------------------------------------------------
A------------------------------------------------------------------- 
E-------------------------------------------------------------------

E-------------------------------------------------------------------
B-20^12-15^12-19^12-15^12-20^12-15^12-19^12-15^12-20^12-15^12-19^12-
G-------------------------------------------------------------------
D-------------------------------------------------------------------
A-------------------------------------------------------------------
E-------------------------------------------------------------------

NOTE: This part is a not exactly as it sounds, it's pretty close to it.
E--------------------------   E----------------------------
B--------------------------   B----------------------------
G--------------------------   G----------------------------
D--------------------------   D-(7)/^----------------------
A--------------------------   A-(7)/^----------------------
E-*0\----------------------   E-*0/^--^\--------^^^-~~~~~--
*Use tremolo bar              *Play with the tremolo bar
                              ()natural harmonic

E----------------------------
B--------------(5)\--/-------
G-(5)*\--*/------------------
D----------------------------
A----------------------------
E----------------------------
()natural harmonic
*using th tremolo bar softly up and down.

[repeat INTRO to sing the third verse]
[repeat BRIDGE to sing the chorus]
[repeat RIFF 1]

E--------------
B--------------
G--------------
D--------------
A-2--2--2--2---  
E-0--0--0--0---

ENJOY!!!!
Comments