Sodom - Enchanted Land Chords & Tabs

 

Enchanted Land Chords & Tabs

Sodom Chords & Tabs

Version: 1 Type: Tab 0 ratings
1 star 2 stars 3 stars 4 stars 5 stars
comments

Enchanted Land Tab

   
                          SODOM - ENCHANTED LAND
                          From "Persecution Mania"            


Transcribed by: Justin Simms

For Questions, Comments, Corrections, Requests
please contact at reaper@slayerized.com

Check out The Reaper's Metal Tablature Archive at
      http://internettrash.com/users/thereaper/

.  - palm mute                          /  - slide up to
\  - slide down to                      ~  - vibrato
"  - tremelo picking                    () - ghost note
p  - pull off                           h  - hammer-on 
tr - trill notes                        fb - full bend (1step)
< > - harmonic

Sodom - Enchanted Land

Standard Tuning (EADGBE)

Intro
|---------------------------------------|----------------------------------------| 
|---------------------------------------|----------------------------------------|
|---------------------------------------|----------------------------------------|Guitar
|---------------------------------------|------------------5-4-2-3---------------|1
|-2----------3--------4--------5--------|-2----------4-5---3-2-0-1---------------|
|-0-00000000-1-000000-2-000000-3--------|-0-00000000-2-3-0-----------------------| 
|                                       |                                        |
|---------------------------------------|----------------------------------------|
|---------------------------------------|----------------------------------------|
|---------------------------------------|----------------------------------------|Guitar
|---------------------------------------|----------------------------------------|2
|-2-------------------------------------|----------------------------------------|
|-0-------------------------------------|----------------------------------------|

|---------------------------------------|----------------------------------------| 
|---------------------------------------|----------------------------------------|
|---------------------------------------|----------------------------------------|Guitar
|---------------------------------------|------------------5-4-2-3---------------|1
|-2----------3--------4--------5--------|-2----------4-5---3-2-0-1---------------|
|-0-00000000-1-000000-2-000000-3--------|-0-00000000-2-3-0-----------------------| 
|                                       |                                        |
|---------------------------------------|----------------------------------------|
|---------------------------------------|----------------------------------------|
|---------------------------------------|----------------------------------------|Guitar 
|---------------------------------------|----------------------------------------|2
|-2----------3--------4--------5--------|-2--------------------------------------|
|-0----------1--------2--------3--------|-0--------------------------------------| 



Riff A 4x
|---------------------------------------|----------------------------------------| 
|---------------------------------------|----------------------------------------|
|---------------------------------------|----------------------------------------|Guitar
|---------------------------------------|------------------5-4-2-3---------------|1
|-2----------3--------4--------5--------|-2----------4-5---3-2-0-1---------------|
|-0-00000000-1-000000-2-000000-3--------|-0-00000000-2-3-0-----------------------| 
|                                       |                                        |
|---------------------------------------|----------------------------------------| 
|---------------------------------------|----------------------------------------|
|---------------------------------------|----------------------------------------|Guitar 
|---------------------------------------|------------------5-4-2-3---------------|2
|-2----------3--------4--------5--------|-2----------4-5---3-2-0-1---------------|
|-0-00000000-1-000000-2-000000-3--------|-0-00000000-2-3-0-----------------------| 


[ Tab from: http://www.guitartabs.cc/tabs/s/sodom/enchanted_land_tab.html ]
Riff B 4x
|---------------------------------------|----------------------------------------| 
|---------------------------------------|----------------------------------------|
|---------------------------------------|------------------5-4-------------------|Guitar
|-2----------3------4------5------------|-2----------4-5---3-2-------------------|1
|-0-00000000-1-0000-2-0000-3------------|-0-00000000-2-3-0-----------------------|
|---------------------------------------|----------------------------------------| 
|                                       |                                        |
|---------------------------------------|----------------------------------------| 
|---------------------------------------|----------------------------------------|
|---------------------------------------|------------------5-4-------------------|Guitar
|-2----------3------4------5------------|-2----------4-5---3-2-------------------|2
|-0-00000000-1-0000-2-0000-3------------|-0-00000000-2-3-0-----------------------|
|---------------------------------------|----------------------------------------| 

Riff A 4x
Riff B 4x

Play Intro Again, let the last chord ring

       Play 4x
|-----|---------------------------------|----------------------------------------|             
|-----|---------------------------------|----------------------------------------|
|-----|---------------------------------|----------------------------------------|Guitar
|-----|---------------------------------|-------------------x--------------------|1
|-3-5-|-2----2------2---2---2-3---------|-2----2------3-3-3-x-3-3----------------|
|-1-3-|-3-00-3-0000-3-0-3-0-3-4---------|-3-00-3-0000-1-1-1-x-1-1----------------| 
|     |                                 |                                        |
|-----|---------------------------------|----------------------------------------|
|-----|---------------------------------|----------------------------------------|
|-----|---------------------------------|----------------------------------------|Guitar 
|-----|---------------------------------|-------------------x--------------------|2
|-3-5-|-2----2------2---2---2-3---------|-2----2------3-3-3-x-3-3----------------|
|-1-3-|-3-00-3-0000-3-0-3-0-3-4---------|-3-00-3-0000-1-1-1-x-1-1----------------|

Riff C 1x
|---------------------------------------|
|---------------------------------------|
|---------------------------------------|Guitar
|-3-------------------------------------|1
|-1----3----5--2----2------2----2-------|
|------1----3--3-00-3-0000-3-00-3-0000--| 
|                                       |                                        
|---------------------------------------|
|---------------------------------------|
|---------------------------------------|Guitar 
|-3-------------------------------------|2
|-1----3----5--2----2------2----2-------|
|------1----3--3-00-3-0000-3-00-3-0000--|

Riff D         (this section gets played 4x the first time you go through it)
|-------------|-------------------------------------------------------------------| 
|-------------|-------------------------------------------------------------------|
|-------------|-------------------------------------------------------------------|Guitar
|-3-----------|-------------------------------------------------------------------|1
|-1----3----5-|-2-------2-------2-------2---3---3---------------------------------|
|------1----3-|-3-000-003-000-003-000-003-004-001-000-----------------------------| 
|             |                                                                   |
|-------------|-------------------------------------------------------------------|
|-------------|-------------------------------------------------------------------|
|-------------|-------------------------------------------------------------------|Guitar 
|-3-----------|-------------------------------------------------------------------|2
|-1----3----5-|-2-------2-------2-------2---3---3---------------------------------|
|------1----3-|-3-000-003-000-003-000-003-004-001-000-----------------------------|

Riff C 1x
Only the intro part thingie of Riff D 1x

He starts nailing the open E string really fast right before the solo

|---------------------------------------|----------------------------------------| 
|---------------------------------------|----------------------------------------|
|------solo-----------------------------|-------------solo-----------------------|Guitar
|---------------------------------------|----------------------------------------|1
|---------------------------------------|----------------------------------------|
|---------------------------------------|----------------------------------------| 
|                                       |                                        |
|---------------------------------------|----------------------------------------|
|---------------------------------------|----------------------------------------|
|---------------------------------------|----------------------------------------|Guitar 
|---------------------------------------|----------------------------------------|2
|-11111111------------------------------|------3-----4-----5---------------------|
|------------11111111---33333333--------|-0000-1-000-2-000-3---------------------| 

Riff A 4x
Riff B 2x
Riff A 4x
Riff B 4x

Intro Riff, let the last note ring

End on three power chords:  F6   G6   E6
Comments