Sodom - Die Stumme Ursel Chords & Tabs

 

Die Stumme Ursel Chords & Tabs

Sodom Chords & Tabs

Version: 1 Type: Tab 0 ratings
1 star 2 stars 3 stars 4 stars 5 stars
comments

Die Stumme Ursel Tab

Sodom - Die stumme Ursel
Album: 'Til Death Do Us Unite
Music & Lyrics by Tom Angelripper
Tabbed by Adrian

This song is played very fast like all Sodom songs.
But simple

Standard Tuning
Heavy Distortion

INTRO/CHORUS

e------------------------------------------------------
B------------------------------------------------------
G------------------------------------------------------
D--7--7--7--7-/-10-10-10-10-\-5--5--5--5--5--5--5--5---
A--7--7--7--7-/-10-10-10-10-\-5--5--5--5--5--5--5--5---
E--5--5--5--5-/-8--8--8--8--\-3--3--3--3--3--3--3--3---

VERSE

e------------------------------------------------------
B------------------------------------------------------
G------------------------------------------------------
D--7--7--7--7-/-10-10-10-10-\-5--5--5--5--5--5--5--5---
A--7--7--7--7-/-10-10-10-10-\-5--5--5--5--5--5--5--5---
E--5--5--5--5-/-8--8--8--8--\-3--3--3--3--3--3--3--3---
   \_______________________________________________/
			palm muted
[ Tab from: http://www.guitartabs.cc/tabs/s/sodom/die_stumme_ursel_tab.html ]
PRE CHORUS
e------------------------------------------------------
B------------------------------------------------------
G------------------------------------------------------
D--7-7-7-7-/-8-8-8-8-/-9-9-9-9-/-10101010--------------
A--7-7-7-7-/-8-8-8-8-/-9-9-9-9-/-10101010--------------
E--5-5-5-5-/-6-6-6-6-/-7-7-7-7-/-8-8-8-8---------------

Solo (just my interpretation):
1 takt nur bass
dann solo
e------------5~---77777776666665555-------------------------------------------------------7~~~-----
B--5--0---3------------------------------------5-86-----------------------------7-5------5------
G------------------------------------6-4-----3--------3-5---------------------------7-5---------
D----------------------------------------6-4--------------5-3---------------5-7-----------------
A-------------------------------------------------------------3-5-----3-5-7---------------------
E-----------------------------------------------------------------5-3---------------------------

Good fun by playing!
Comments