Sodom - Bombenhagel Chords & Tabs

 

Bombenhagel Chords & Tabs

Sodom Chords & Tabs

Version: 1 Type: Tab 0 ratings
1 star 2 stars 3 stars 4 stars 5 stars
comments

Bombenhagel Tab

"Bombenhagel"
by Sodom
from the album PERSECUTION MANIA
Transcribed by Andres Usma
wuv@col2.telecom.com.co

NOTE: Because of the difficulties in the SOLOS of this TAB the notes
appearing are the closest way i got!!!
Enjoy!!!


BASS. 1 (Bass starts playing the rhythm 3 times, and the guitar starts
with FIG.1)
G--------------------------------------------------------
D--------------------------------------------------------
A-7---7--7-7-7---------------5---5---5-5-5---------------
E--------------8---8---8-8-8---------------5---5---5-5-5-

FIG. 1 (play after first time of BASS.1 TWICE)
E----------------------------------------------------
B----------------------------------------------------
G----------------------------------------------------
D-9------9-------------------7------7----------------
A-7------7-----10-----10-----5------5-------7------7-
E--------------8------8---------------------5------5-

FIG. 1A (play while singing first verse and Chorus)
E----------------------------------------------
B----------------------------------------------
G----------------------------------------------
D-9----------------------7---------------------
A-7--7-7-7-7-10----------5--5-5-5-5-7----------
E------------8--8-8-8-8------------5--5-5-5-5--
  Bombenhagel!!!

RIFF 1 (let ring)
E------------------------
B------------------------
G------------------------
D------------------------
A-7----------------------
E-5----------------------

FIG. 2 (play along with solo)
E---------------------------------------
B---------------------------------------
G---------------------------------------
D---------------------------------------
A-5^7----------5^7----------5^7-5^7-5^7-
E-0----0-0-0-0-0----0-0-0-0-0---0---0---

SOLO 1
E---------------------------------------------------------------------
B---------------------------------------------------------------------
G--------------------------*9^~~~----------------------7~~-6^7^6------
D---------------7^9^7-7^9^7--------------------------9-----------7--9-
A-7^10^7-7^10^7-7-----7-------------7----------------7----------------
E-0------0--------------------------0---------------------------------
*Move tremolo bar up and down

E-----------------------------------------------
B-----------------------------------------------
G------------------*9^~~--7--6--6^7^6-----------
D-------------7--9---------------------9--7--9--
A-7-----------7--7---------------------------7--
E-0---------------------------------------------
*bend up

(keep playing FIG. 2)
(repeat BASS. 1, 4 times)
(repeat FIG.1 twice after second time of BASS. 1)
(repeat FIG. 1A to sing second verse and Chorus)
(repeat FIG. 2 for SOLO 2)

SOLO 2
E--------------------------------------------------------------------
B-----------------------------------------7^8---7^8---7^8---7^8------
G-----------------------------7^9^7---7-9-----9-----9-----9----*9^~~-
D-------------------7^9^7^9^7-------9--------------------------------
A-7^9^7^9^7^9^7^9^7--------------------------------------------------
E--------------------------------------------------------------------
*bend up                                     

E-------------------------/8---7^8^7^8^7-/15--14^15^14^15^14---
B-------------8--7^8^7^8^7-------------------------------------
G-7^9^7^9^7^9--------------------------------------------------
D--------------------------------------------------------------
A--------------------------------------------------------------
E--------------------------------------------------------------
                                   
  
E-11^12^11^12^11------------------------------------------------
B----------------11^12^11^12^11---------------------------------
G-------------------------------12^14-*14^~~--(12)^(14)-*(14)^--
D---------------------------------------------------------------
A---------------------------------------------------------------
E---------------------------------------------------------------
*bend up and use tremolo bar moving it very fast

()artificial harmonic
[ Tab from: http://www.guitartabs.cc/tabs/s/sodom/bombenhagel_tab.html ]
E----------------------------------------------------------------------
B--------------5-8-10^5-8-10^5-8-10^5-8-10^5-8-12^5-8-12^5-8-12^5-8-12^
G-*2^------------------------------------------------------------------
D----------------------------------------------------------------------
A----------------------------------------------------------------------
E----------------------------------------------------------------------
*bend up 

E---------------------------------------------------------------
B-5-8-13^5-8-13^5-8-13^5-8-13^5-8-15^5-8-15^5-8-15^5-8-15-/17~~-
G---------------------------------------------------------------
D---------------------------------------------------------------
A---------------------------------------------------------------
E---------------------------------------------------------------

E-12-15-17^12-15-17^12-15-17^*15^---12--15---15^17^15^17^15^17^15^17^19
B----------------------------------------------------------------------
G----------------------------------------------------------------------
D----------------------------------------------------------------------
A----------------------------------------------------------------------
E----------------------------------------------------------------------
*bend up 

E-^15^17^19^15^17^20^15^17^19^15^17^22^15^17^22^15-22~~-12-15-20^12-15-
B----------------------------------------------------------------------
G----------------------------------------------------------------------
D----------------------------------------------------------------------
A----------------------------------------------------------------------
E----------------------------------------------------------------------

E-17-19^12-15-17^12-15-19^12-15-17------------17^12-15^12---17^12-15^12
B----------------------------------15--15^17--------------15-----------
G----------------------------------------------------------------------
D----------------------------------------------------------------------
A----------------------------------------------------------------------
E----------------------------------------------------------------------

E----17^12-15^12----17^12-*15^---12^15^12----12----------------------
B-15--------------15----------------------15----15-12----------------
G-----------------------------------------------------14-/14-12*14^--
D--------------------------------------------------------------------
A--------------------------------------------------------------------
E--------------------------------------------------------------------
*bend up

E---------------------------------------------------------------------
B---------------------------------------------------------------------
G-12^14^12----12------------------------------9^12^9^12^9^11^9^12^9^11
D----------14----14-12^14^12----12-------14~~-------------------------
A----------------------------14----14-12------------------------------
E---------------------------------------------------------------------

E-------------------
B-------------------
G-----9~~~----------
D-12----------------
A-------------------
E-------------------

(repeat BASS. 1, 4 times)
(repeat FIG.1 twice after second time of BASS. 1)
(repeat FIG. 1A to sing third verse and Chorus)
(repeat FIG.2 to play Germany's National Anthem)

GERMANY'S NATIONAL ANTHEM
FIG. 3 (play twice)
E-----------------------------------------------------
B-----------------------------------------------------
G-----------------------------/6----------------------
D--------6------7---6--------------9-7--6-----6---9---
A-/7---9-----9----------9-6-7--------------9----7-----
E-----------------------------------------------------

FIG. 3A
E----------------------------------------------------------------------
B----------------------------------------------------------------------
G-----------------------------------------------/9---8-8-6----/6-------
D------6-------/7---6-------/9---7-6---8---9-9-------------9-------9-9-
A-/9-----9-6----------9-6----------------------------------------------
E------------7------------7--------------------------------------------

E--------------------------------
B--------------------------------
G---------------6----------------
D-7-6-------6-7---7--------------
A-------9-----------9-(7)\\\\\\--
E--------------------------------
()natural harmonic
(the next part of the solo is played with a few harmonics and tremolo 
bar, while FIG. 2 is played until the end)

ENJOY!!!
Comments