Sodom - Baptism Of Fire Chords & Tabs

 

Baptism Of Fire Chords & Tabs

Sodom Chords & Tabs

Version: 1 Type: Tab 0 ratings
1 star 2 stars 3 stars 4 stars 5 stars
comments

Baptism Of Fire Tab

"Baptism of fire"
by Sodom
from the album AGENT ORANGE

Tabbed by Ronald Ammann

Legend:

   .   ->  Palm mute
   \   ->  Break
  ( )  ->  Hold


Riff 1
||-----------------|-----------------|-----------------||
||-----------------|-----------------|-----------------||
||-----------------|-----------------|-----------------||
||---------3---3---|---------3---3---|---------2-------||
||---------3---3---|---------3---3---|---------2-------||
||-0-0-0---1---1---|-0-0-0---1---1---|-0-0-0---0-------||
   . . .             . . .             . . .

Intro   (hold chords)
||-------------   |-------------
||-------------   |-------------
||-------------   |-------------
||---------3---   |---------2---
||---------3---   |---------2---
||-0-0-0---1---   |-0-0-0---0---
   . . .            . . .

Play Riff 1

Rest of Intro 
 |-------------   |-------------
 |-------------   |-------------
 |-------------   |-------------
 |-----(2)-3---   |---------2---
 |-----(2)-3---   |---------2---
 |-----(0)-1---   |-0-0-0---0---
                    . . .

Play Riff 1  (without last chord)

  Play 4x      Play 4x     Play 4x     Play 4x
 |---------   |---------   |---------   |--------- 
 |---------   |---------   |---------   |---------
 |---------   |---------   |---------   |---------
 |---------   |---------   |---------   |---------
 |---------   |---------   |---------   |---------
 |-0-0000--   |-1-1111--   |-0-0000--   |-6-6666--
   . ....       . ....       . ....       . .... 

 |-----------------|-----------------||
 |-----------------|-----------------||
 |-----------------|-----------------||
 |-2-\-------------|-----------------||
 |-2-\-------------|-----------------||
 |-0-\-------------|-----------------||


[ Tab from: http://www.guitartabs.cc/tabs/s/sodom/baptism_of_fire_tab.html ]
Verse (2x)  (It could also be that they play 32th-notes in this riff)
||---------------------------------|---------------------------------|
||---------------------------------|---------------------------------|
||---------------------------------|---------------------------------|
||---------------------------------|---------------------------------|
||---------------------------------|-2-2-2-2-2-2-2-2-3-3-3-3---------|
||-0-0-0-0-0-0-0-0-0-0-0-0-3-3-2-2-|-------------------------1-1-1-1-|
   . . . . . . . . . . . . . . . .   . . . . . . . . . . . . . . . .
 |---------------------------------|---------------------------------||
 |---------------------------------|---------------------------------||
 |---------------------------------|---------------------------------||
 |---------------------------------|---------------------------------||
 |---------------------------------|-2-2-2-2-2-2-2-2-3-3-3-3-5-5-5-5-||
 |-0-0-0-0-0-0-0-0-0-0-0-0-3-3-2-2-|---------------------------------||
   . . . . . . . . . . . . . . . .   . . . . . . . . . . . . . . . .


Chorus 
||---------------------------------|
||---------------------------------|
||---------------------------------|
||---------------------------------|
||---------------------------------|
||-0-0-0-0-0-0-0-0-0-0-0-0-0-0-0-0-|
   . . . . . . . . . . . . . . . .

   Play next lines 4 times  (4th time end at last chord)
 |---------------------------------|---------------------------------|
 |---------------------------------|---------------------------------|
 |-7-------------------------------|-5-------------------------------|
 |-7-------------------------------|-5-------------------------------|
 |-5-------------------------------|-3-------------------------------|
 |---------0-0-0-0-0-0-0-0-0-0-0-0-|---------0-0-0-0-0-0-0-0-0-0-0-0-|
           . . . . . . . . . . . .           . . . . . . . . . . . .
 |---------------------------------|---------------------------------||
 |---------------------------------|---------------------------------||
 |-3-------------------------------|---------------------------------||
 |-3---------------5---------------|-2-------------------------------||
 |-1---------------5---------------|-2-------------------------------||
 |---------0-0-0-0-3-------0-0-0-0-|-0-------0-0-0-0-0-0-0-0-0-0-0-0-||
           . . . .         . . . .           . . . . . . . . . . . .


2x Verse
Chorus
2x Verse


Solo Rhythm (2x)
||-----------------|-----------------|-----------------|-----------------|
||-----------------|-----------------|-----------------|-----------------|
||-----------------|-----------------|-----------------|-----------------|
||-9---------------|-5---------------|-7---------------|-4---------------|
||-9---------------|-5---------------|-7---------------|-4---------------|
||-7---------------|-3---------------|-5---------------|-2---------------|

 |-----------------|-----------------|-----------------|-----------------||
 |-----------------|-----------------|-----------------|-----------------||
 |-----------------|-----------------|-----------------|-----------------||
 |-9---------------|-5---------------|-8---------------|-4---------------||
 |-9---------------|-5---------------|-8---------------|-4---------------||
 |-7---------------|-3---------------|-6---------------|-2---------------||


Chorus
2x Verse


Coda
||-------
||-------
||-------
||-2-\---
||-2-\---
||-0-\---

Play Riff 1 and break at the last chord
Comments