Sodom - Ausgebombt Chords & Tabs

 

Ausgebombt Chords & Tabs

Sodom Chords & Tabs

Version: 1 Type: Tab 0 ratings
1 star 2 stars 3 stars 4 stars 5 stars
comments

Ausgebombt Tab

Ausgebombt

By Sodom, from the single "Ausgebombt" / album "Agent orange"

Music by Witchhunter/Blackfire
Tabbed by Ronald Ammann

Legend:

   .   ->  Palm mute
   \   ->  slide down
   !   ->  break


The version from "Marooned" is played 
one half-step deeper, so watch out!!


Bass guitar starts playing Riff 1
Guitarz play Fill 1 the second time

Fill 1
||-----------|------------||
||-----------|------------||
||-----------|------------||
||-12-11--7--|-9\!--------||
||-10--9--5--|-7\!--------||
||-----------|------------||

On the 4th time guitarz enter with Fill 2

Fill 2
||-----------
||-----------
||-----------
||-12-11--7--
||-10--9--5--
||-----------


Riff 1 (6x)
||-------------------------------|--------------------------||
||-------------------------------|--------------------------||
||-------------------------------|--------------------------||
||-9--------------7--------------|-9--------------12-11--7--||
||-7--7-7-7-7-7-7-5--5-5-5-5-5-5-|-7--7-7-7-7-7-7-10--9--5--||
||----------------------------------------------------------||
      . . . . . .    . . . . . .      . . . . . .

[ Tab from: http://www.guitartabs.cc/tabs/s/sodom/ausgebombt_tab.html ]
Riff 2
||-------------------------------|--------------------------------|
||-------------------------------|--------------------------------|
||-------------------------------|--------------------------------|
||-------------------------------|--------------------------------|
||-10-------------9--------------|-10-------------9---9---7-------|
||-8--8-8-8-8-8-8-7--7-7-7-7-7-7-|-8--8-8-8-8-8-8-7---7---5-------|
      . . . . . .    . . . . . .      . . . . . . 

 |-------------------------------|--------------------------------||
 |-------------------------------|--------------------------------||
 |-------------------------------|--------------------------------||
 |-------------------------------|----------------9-------7-------||
 |-10-------------9--------------|-10-------------7-------5-------||
 |-8--8-8-8-8-8-8-7--7-7-7-7-7-7-|-8--8-8-8-8-8-8-----------------||
      . . . . . .    . . . . . .      . . . . . .


Play Riff 1 (8x)
Play Riff 2
Play Riff 1 (4x)  on 4th time guitarz play Fill 1 instead of last chords

Play Riff 1 (2x)  bass guitar only, one guitar enters on 2nd time with Fill 2
Play Riff 1 (2x)  second guitar enters 2nd time with Fill 2
Play Riff 1 (2x)

Play Riff 1 (2x)  whammy-dive-bomb     ... Damn! Can't try it :-(
Play Riff 2
Play Riff 1 (4x)

During the solo there's only bass guitar
Bass plays 4x Riff 3 and 2x Riff 1
If you don't play the solo or have two guitarz then here's Riff 3:

Riff 3
||-------------------------------|-------------------------------||
||-------------------------------|-------------------------------||
||-------------------------------|-------------------------------||
||-------------------------------|----------------10-------------||
||-9--------------10-------------|-9--------------8--8-8-8-8-8-8-||
||-7--7-7-7-7-7-7-8--8-8-8-8-8-8-|-7--7-7-7-7-7-7----------------||
      . . . . . .    . . . . . .      . . . . . .    . . . . . .


Play Riff 1 (6x)
Play Riff 2
Play Riff 1 (4x)

Play Fill 2 (2x)

Coda
||------
||------
||------
||--9!--
||--7!--
||------
Comments