Sodom - Agent Orange Chords & Tabs

 

Agent Orange Chords & Tabs

Sodom Chords & Tabs

Version: 1 Type: Bass Tab 0 ratings
1 star 2 stars 3 stars 4 stars 5 stars
comments

Agent Orange Bass Tab

   
Song:   Agent Orange
Artist: Sodom
Album:  Agent Orange
Time:   6:03

Tabbed By: Cody Edwards 

Date Transcribed: November, 01 2000

I am pretty sure that this is incorrect but it sounds right. I am working out
the kinks amd will update corrections soon.

Please direct all comments, suggestions, corrections etc etc... to the address
above. Thanks and enjoy the tab.
______________________________________________________________________________________________________

Standard Tuning (E, A, D, G)

Figure 1. 4x - 70 bpm
|-----------------------------------|--------------------------------------|
|-----------------------------------|--------------------------------------|
|---------------------------1-h3----|---------------------------1/3\1/3\1--|
|---0-0-2-0-3-0-0-2-0-0-0-0------3--|--0-0-2-0-3-0-0-2-0-0-0-0-------------|

Figure 2. 3x
|---------------------------------------------------------------------------|
|---------------------------------------------------------------------------|
|------------7--------3--------3--------------------------------------------|
|---0--0-0-0----0-0-0----0-0-0----0-0-0-2--0-0-0-2--0-0-0-1--0-0-0-1--0-0-0-|

Figure 3. 2x
|------------------------------------------------------------------------------|
|------------------------------------------------------------------------------|
|---2--------2--------3--------3-----------------------------------------------|
|------0-0-0----0-0-0----0-0-0----0-0-0-2--0-0-0-2--0-0-0-12--0-0-0-12--0-0-0--|

             205 bpm       
|--------|   |--------|
|--------|   |--------|
|--------|   |--------|
|---0----|   |---0----|

Figure 4. 235 bpm
1x         1x                 1x
|----------|-----------7/9----|-----------------------|
|----------|------------------|-----------------------|
|---3------|------------------|------3------3------7--|
|------3---|---0-0-0-0--------|--00-----00-----00-----|

Figure 5. 3x
|------------------------|---------------------|
|------------------------|---------------------|
|---------------1/3\1/3--|---------------3-----|
|-000000000000-----------|-000000000000-----3--|

|------------------------|-------------------------------|
|------------------------|-------------------------------|
|---------------1/3\1/3--|----------------3-----3-----7--|
|-000000000000-----------|-000000000000-00----00----00---|

Figure 6. 2x
|--------------------|---------------------|
|--------------------|---------------------|
|--------------------|---------------------|
|--11111111111111-3--|--77777777777777--3--|

Figure 7. 1x
|--------------------|
|--------------------|
|--1/3--1/3--1/3-----|
|-----------------1--|

Figure 4. 1x
Figure 5. 3x
Figure 6. 2x
Figure 7. 1x

Figure 8. 4x 90 bpm
|-------------------|
|-------------------|
|-------------------|
|--0-0-0-0-0-0-0-0--|

Figure 9. 3x
|---hp------hp-----------|-------------------|
|--787-----676-----5-----|-------------------|
|---------------------7--|-------------------|
|-------0-------0--------|--0-0-0-0-0-0-0-0--|
[ Tab from: http://www.guitartabs.cc/tabs/s/sodom/agent_orange_btab.html ]
|------------------------|-------------------|
|---hp------hp-----------|-------------------|
|--787-----676-----5-----|-------------------|
|-------0-------0-----7--|--0-0-0-0-0-0-0-0--|

Figure 10. 1x
|------------------------|-------------------|
|------------------------|-------------------|
|--777-----7-------7--7--|-------------------|
|------------------------|--0-0-0-0-0-0-0-0--|

|------------------------|-------------------|
|---hp------hp-----------|-------------------|
|--787-----676-----5-----|-------------------|
|-------0-------0-----7--|--0-0-0-0-0-0-0-0--|

|---------------------|-------------------|
|---------------------|-------------------|
|---------------------|-------------------|
|--0-0-0-0-0-0-0-0-0--|--0-0-0-0-0-0-0-0--|

Figure 11. 2x
|------------------------|-------------------|
|------------------------|-------------------|
|--7---------------------|--6----------------|
|------------------------|-------------------|

|------------------------|-------------------|
|------------------------|-------------------|
|--3---------------------|--2----------------|
|------------------------|-------------------|

Figure 12.

4x 170 bpm       4x               4x               2x                                 
|---------------||---------------||---------------||---------------||----------------||
|---------------||---------------||---------------||---------------||----------------||
|------------7--||------------6--||------------3--||------------2--||-------------2--||
|--00000000-----||--00000000-----||--00000000-----||--00000000-----||--1-------------||

4x               4x               4x               2x                                  
|---------------||---------------||---------------||---------------||----------------||
|---------------||---------------||---------------||---------------||----------------||
|------------7--||------------6--||------------3--||------------2--||----------------||
|--00000000-----||--00000000-----||--00000000-----||--00000000-----||--1-----------2-||

4x               4x               4x               2x                                  
|---------------||---------------||---------------||---------------||----------------||
|---------------||---------------||---------------||---------------||--1-------------||
|------------7--||------------6--||------------3--||------------2--||-------------3--||
|--00000000-----||--00000000-----||--00000000-----||--00000000-----||----------------||

4x               4x               4x               2x                                  
|---------------||---------------||---------------||---------------||-------||--------------------||
|---------------||---------------||---------------||---------------||-------||--------------------||
|------------7--||------------6--||------------3--||------------2--||--2----||--------2-3-2-------||
|--00000000-----||--00000000-----||--00000000-----||--00000000-----||-------||--2-2-3------3-2-0--||

Figure 4. 1x
Figure 5. 3x
Figure 6. 4x
Figure 7. 1x

Figure 5. 3x
Figure 6. 4x
Figure 7. 1x


Comments