Soda Stereo - Disco Eterno Chords & Tabs

 

Disco Eterno Chords & Tabs

Soda Stereo Chords & Tabs

Version: 1 Type: Tab

Disco Eterno Tab

   
-=Intro=- 
             D9       Fmaj7        C9           G6                  D9
 e|----------------------------------------------------|---------------|]
 B|----------------------------------------------------|---------------|]
 G|-------------------5-4-----------------------2-0----|---------------|]
 D|----0-3-3-3----3-0--------0-3-3-3/5--5-3-0----------|----0-3-3-3-0~-|]
 A|--3----------3----------3---------------------------|--3------------|]
 E|-------------------------------------------------x2-|---------------|]
            Fmaj7           C9       G6        D9
 e|--1--0---0---------------3---3/5---------------|]
 B|-------3---3-0-0-0-1-1-3---3------3-1-0--------|]
 G|----------------------------------------2-0----|]
 D|--------------------------------------------0--|]
 A|-----------------------------------------------|]
 E|-----------------------------------------------|]
            Fmaj7          C9  G6
 e|--1--0---0----------------3---3/7--|]
 B|-------3---3-0-0-0-1-1--3---3------|]
 G|-----------------------------------|]
 D|-----------------------------------|]
 A|-----------------------------------|]
 E|-----------------------------------|]

D9    Fmaj7 C9 G6
Me salí 
             D9   Fmaj7 C9 G6			
fuera de contexto				
D9     Fmaj7 C9 G6				
Practicar 					
             D9    Fmaj7 C9 G6
no te hace perfecto
D9        Fmaj7      C9 G6
poner un disco eterno 
 D9        Fmaj7 C9 G6
y moverme tornasol

A5        C9
Un espíritu
   A5
a veces seguro
       C9
otras veces incierto
A5            C9
quiero descubrir
      A5             C9    
por que este deseo crece
[ Tab from: http://www.guitartabs.cc/tabs/s/soda_stereo/disco_eterno_tab.html ]
-=Intro=-
             D9       Fmaj7        C9           G6                  D9
 e|----------------------------------------------------|---------------|]
 B|----------------------------------------------------|---------------|]
 G|-------------------5-4-----------------------2-0----|---------------|]
 D|----0-3-3-3----3-0--------0-3-3-3/5--5-3-0----------|----0-3-3-3-0~-|]
 A|--3----------3----------3---------------------------|--3------------|]
 E|-------------------------------------------------x2-|---------------|]
            Fmaj7           C9       G6        D9
 e|--1--0---0---------------3---3/5---------------|]
 B|-------3---3-0-0-0-1-1-3---3------3-1-0--------|]
 G|----------------------------------------2-0----|]
 D|--------------------------------------------0--|]
 A|-----------------------------------------------|]
 E|-----------------------------------------------|]
            Fmaj7          C9  G6
 e|--1--0---0----------------3---3/7--|]
 B|-------3---3-0-0-0-1-1--3---3------|]
 G|-----------------------------------|]
 D|-----------------------------------|]
 A|-----------------------------------|]
 E|-----------------------------------|]
   
D9         Fmaj7 C9 G6
Entre los dos 
             D9    Fmaj7 C9 G6
pasa un meridiano
D9   Fmaj7  C9  G6
latitud   (latitud)
              D9  Fmaj7 C9 G6
de vidas paralelas
D9        Fmaj7      C9 G6
Abrir el sueno stereo 
D9        Fmaj7  C9 G6
crear la dimensión

A5         C9
Sin disimular
    A5
me voy desnudando
     C9
con cada sonido
A5          C9
alta fidelidad
     A5             C9    
cuando este deseo crece

-=Intro=- 
             D9       Fmaj7        C9           G6                  D9
 e|----------------------------------------------------|---------------|]
 B|----------------------------------------------------|---------------|]
 G|-------------------5-4-----------------------2-0----|---------------|]
 D|----0-3-3-3----3-0--------0-3-3-3/5--5-3-0----------|----0-3-3-3-0~-|]
 A|--3----------3----------3---------------------------|--3------------|]
 E|-------------------------------------------------x2-|---------------|]
            Fmaj7           C9       G6        D9
 e|--1--0---0---------------3---3/5---------------|]
 B|-------3---3-0-0-0-1-1-3---3------3-1-0--------|]
 G|----------------------------------------2-0----|]
 D|--------------------------------------------0--|]
 A|-----------------------------------------------|]
 E|-----------------------------------------------|]
            Fmaj7          C9  G6
 e|--1--0---0----------------3---3/7--|]
 B|-------3---3-0-0-0-1-1--3---3------|]
 G|-----------------------------------|]
 D|-----------------------------------|]
 A|-----------------------------------|]
 E|-----------------------------------|]
   
A5        C9
Un espíritu
   A5
a veces seguro
       C9
otras veces incierto
A5             C9
vengo a descubrir					
      A5             C9    				
por que este deseo crece...				
							
D9 - G6 - Fmaj7 - G6 (Fade Out)				

-=Notas=-	
D9    XX0230	
Fmaj7 X33210
C9    X32030	
G6    X55430

Espero sea d' su agrado, cualquier comentario o corrección ragarideath@hotmail.com
Tijuana, BC, México    Ramón Guillermo Galáz Rios 11/03/05'