Soda Stereo - De Musica Ligera Chords & Tabs

 

De Musica Ligera Chords & Tabs

Soda Stereo Chords & Tabs

Version: 1 Type: Bass Tab 0 ratings
1 star 2 stars 3 stars 4 stars 5 stars
comments

De Musica Ligera Bass Tab

De Música Ligera - Soda Stereo

Bajo:
G|----------------------------------|
D|----------------------------------|
A|-2-2-------5-5--------------------|
E|-----0h3-3-----0h5-5-5------------| Ponganle Feeling
[ Tab from: http://www.guitartabs.cc/tabs/s/soda_stereo/de_musica_ligera_btab.html ]
El otro cambio que hace el bajo:
G|---------------------------------------------------|
D|---------------------------------------9-----------|
A|-2-2-------5-5-----------2-2------5/9-9--7h9p7-----|
E|-----0h3-3-----0h5-5-5------0h3-3--------------9-7-| 

G|-----------------------------------------------------|
D|-----------------------(2)h(4)p(2)-------------------|
A|-2-2-4-5~--5-5-4-2-0h2------------(4)-(2)------------|
E|------------------2----------------------2-2-0h2-0-0-|

G|------------------------------------|
D|-----------4-2-------------7~-------|
A|-5-5-4-5-5-----4-2-------5---5-7~---|
E|-------------------2/5-7------------|
Comments