Soda Estereo - De Musica Ligera Chords & Tabs

 

De Musica Ligera Chords & Tabs

Soda Estereo Chords & Tabs

Version: 1 Type: Tab 0 ratings
1 star 2 stars 3 stars 4 stars 5 stars
comments

De Musica Ligera Tab

   
Any corrections you can do it



Intro:

Bm-G-D-A (x4)


Verse 1: (bass only)

Ella durmio, al calor de las brasas
Y yo desperté, queriendo soñarla

G D G D
Algún tiempo atras, pensé en escribirle
G D G D A
Y nunca sortié, las trampas del amor


Chorus: (intro chords)

De aquel amor, de música ligera
Nada nos libra, nada más queda


Bass solo: (intro chords)


Verse 2: (bass only)

G D G D
No le enviaré, cenizas de rosas
G D G D A
Ni pienso evitar, sus roces secretos


Chorus: (intro chords)

De aquel amor, de música ligera
Nada nos libra, nada más queda


Solo:
E|------------------------------------------------------------|
B|-9/12------12------12---------------------------------------|
G|------14------14------14-----------------14--13-------------|
D|----------------------------16--14--16-----------16--14--16-|
A|------------------------------------------------------------|
E|------------------------------------------------------------|

E|----------------12--------------12---------------------|
B|------------12------15--14--15------15--14--12--14--12-|
G|-----14-14---------------------------------------------|
D|-16----------------------------------------------------|
A|-------------------------------------------------------|
E|-------------------------------------------------------|

E|-------------------------------------------------------------|
B|-12---------------12----------------12-----------12----------|
G|----15-14-12---------15-14-12---------15-12---------15-12----|
D|-------------16---------------16------------16------------16-|
A|-------------------------------------------------------------|
E|-------------------------------------------------------------|

E|-----------------------------14--12-14--12--14-15-14-12-|
B|-12-----------12----------------------------------------|
G|---15-12---------15-12----------------------------------|
D|---------16------------16-------------------------------|
A|--------------------------------------------------------|
E|--------------------------------------------------------|
[ Tab from: http://www.guitartabs.cc/tabs/s/soda_estereo/de_musica_ligera_tab.html ]
E|-----12-14--15--14--12--------------12-------------12----------|
B|-14---------------------15----14-15----15-14----------15-14----|
G|------------------------------------------------------------16-|
D|---------------------------------------------------------------|
A|---------------------------------------------------------------|
E|---------------------------------------------------------------|

E|----------------------------------------------------------------------|
B|-12-------------13---13---12-----12----------12----------13-----------|
G|----15-14---------------------------15-12-------15-12-------15--12----|
D|----------16------------------------------16----------16-----------16-|
A|----------------------------------------------------------------------|
E|----------------------------------------------------------------------|

E|---------------------------12-----------12----------|
B|-15-14--------15-14-----------15-12--------15-12----|
G|-------15-12--------15-12-----------15-----------15-|
D|----------------------------------------------------|
A|----------------------------------------------------|
E|----------------------------------------------------|


Chorus: (intro chords)

De aquel amor, de música ligera
Nada nos libra, nada más queda, nada más


Break:

E|-2-2-2--3-3-3-3-3--3-3-3-3--5-5-5-5-5-|
B|-3-3-3--3-3-3-3-3--5-5-5-5--5-5-5-5-5-|
G|-4-4-4--4-4-4-4-4--5-5-5-5--6-6-6-6-6-| x2
D|-4-4-4--5-5-5-5-5--5-5-5-5--7-7-7-7-7-|
A|--------------------------------------|
E|--------------------------------------|


Ending:

Nada mas queda, nada más queda, nada más queda, nada más queda (play w/final solo)

Final Solo:
E|------------------------------------------------------------|
B|-12------12------12-----------------------------------------|
G|-----14------14------14------------------14--13-------------|
D|--------------------------16---14--16------------16--14--16-| 
A|------------------------------------------------------------|
E|------------------------------------------------------------|

E|----------------12--------------12---------------------|
B|------------12------15--14--15------15--14--12--14--12-|
G|-----14-14---------------------------------------------|
D|-16----------------------------------------------------|
A|-------------------------------------------------------|
E|-------------------------------------------------------|

E|-------------12------12----------17--19(vibrato)-|
B|-12--14--15------15------17--19------------------|
G|-------------------------------------------------|
D|-------------------------------------------------|
A|-------------------------------------------------|
E|-------------------------------------------------|

Comments