Sod - Speak English Or Die Chords & Tabs

 

Speak English Or Die Chords & Tabs

Sod Chords & Tabs

Version: 1 Type: Bass Tab

Speak English Or Die Bass Tab

Band:  S.O.D.
Song:  Speak English Or Die!
Album: Speak English Or Die
Transcribed by: The Great Southern Trendkill
E-Mail:         fromadyingfetus@aol.com



 Riff 1
|------------| 
|------------| 
|----2-3-----| 
|-2------3/2-|


 Riff 2
|-------------------------------------|---| - Alternate Ending 
|-------------------------------------|---|
|----------1-1-1-1--4-4-4-4-----------|---|
|-3-3-3-3--------------------4-4-4-4--|-4-|

[ Tab from: http://www.guitartabs.cc/tabs/s/sod/speak_english_or_die_btab.html ]
 Riff 3
|-----------------| 
|-----------------| 
|-----2---3-------| 
|-2-----------3/2-|


 Riff 4 
|-----------------------------------------| 
|-----------------------------------------| 
|-----------------------------------------| 
|-3-33-3-33-3-33-3-33-2-22-2-22-2-22-2-22-|


 Riff 5
|--------------------------------------| 
|--------------------------------------| 
|--------------------------------------| 
|-2-22-2-22-2-22-2-22-1-11-1-11-1-11-0-|