Sod - Moment Of Truth Chords & Tabs

 

Moment Of Truth Chords & Tabs

Sod Chords & Tabs

Version: 2 Type: Tab 0 ratings
1 star 2 stars 3 stars 4 stars 5 stars
comments

Moment Of Truth Tab

moment of truth

by S.O.D.
from the album 'bigger than the devil'

transcribed by Christian Reindel (creindel@gmx.de)
any questions or corrections-e-mail me

tune down 1/2 step

Intro
Eb:|--------------------------------------------|
Bb:|--------------------------------------------|
Gb:|--7-7-7-7-------7-7-7-7---------7-7-7-7-----|
Db:|--------------------------------------------|
Ab:|------------------------4~------------------|
Eb:|--------------------------------------------|
 
    2 times
Eb:|--------------------------------------------|
Bb:|--------------------------------------------|
Gb:|---------------7-7-7-7--------------7-7-7-7-|
Db:|------5--5--5~------------5--5--5~----------|
Ab:|--4~------------------4~--------------------|
Eb:|--------------------------------------------|
    2 times
Eb:|--------------------------------------------|-------|
Bb:|--------------------------------------------|-------|
Gb:|-----7--7--7-------------7--7--7------------|-7-----|
Db:|--6--5--5--5---------6---5--5--5------------|-5--6--|
Ab:|--4------------------4----------------------|----4--|
Eb:|--------------------------------------------|-------|
    main-riff  
Eb:|--------------------------------------------|
Bb:|--------------------------------------------|
Gb:|---------------------7-7--7-7---------------|
Db:|-6-6-6-6-6-6-6-6-6-6-5-5--5-5---------------|
Ab:|-4-4-4-4-4-4-4-4-4-4------------------------|
Eb:|--------------------------------------------|

Verse 1 - the tension in the air ...
Eb:|--------------------------------------------|
Bb:|--------------------------------------------|
Gb:|---------------------7-7--7-7---------------|
Db:|-6-6-6-6-6-6-6-6-6-6-5-5--5-5---------------|
Ab:|-4-4-4-4-4-4-4-4-4-4------------------------|
Eb:|--------------------------------------------|

   the moment of truth is finally here ...
Eb:|--------------------------------------------|
Bb:|--------------------------------------------|
Gb:|-9-9-9-9-9-9-9-9-9-8-8-8-8-8-8-8-8-8--------|
Db:|-7-7-7-7-7-7-7-7-7-6-6-6-6-6-6-6-6-6--------|
Ab:|-7-7-7-7-7-7-7-7-7-6-6-6-6-6-6-6-6-6--------|
Eb:|--------------------------------------------|

Verse 2 - steel and flesh ...
Eb:|--------------------------------------------|
Bb:|--------------------------------------------|
Gb:|---------------------7-7--7-7---------------|
Db:|-6-6-6-6-6-6-6-6-6-6-5-5--5-5---------------|
Ab:|-4-4-4-4-4-4-4-4-4-4------------------------|
Eb:|--------------------------------------------|

   the moment of truth is finally here ...
Eb:|--------------------------------------------|
Bb:|--------------------------------------------|
Gb:|-9-9-9-9-9-9-9-9-9-8-8-8-8-8-8-8-8-8--------|
Db:|-7-7-7-7-7-7-7-7-7-6-6-6-6-6-6-6-6-6--------|
Ab:|-7-7-7-7-7-7-7-7-7-6-6-6-6-6-6-6-6-6--------|
Eb:|--------------------------------------------|

[ Tab from: http://www.guitartabs.cc/tabs/s/sod/moment_of_truth_tab_ver_2.html ]
Eb:|--------------------------------------------|
Bb:|--------------------------------------------|
Gb:|--------------------------------------------|
Db:|--6-(6)------------6-6----------------------|
Ab:|--4-(4)------------4-4----------------------|
Eb:|--------------------------------------------|


     go !    fight !    fuck !        kill !

           3 times                         1 time
Eb:|-------------------------------|--------------------------------|
Bb:|-------------------------------|--------------------------------|
Gb:|---------------------7-7--7-7--|-6-6-6-6-6-6-6-6-6-6-7-7--7-7---|
Db:|-6-6-6-6-6-6-6-6-6-6-5-5--5-5--|-4-4-4-4-4-4-4-4-4-4-5-5--5-5---|
Ab:|-4-4-4-4-4-4-4-4-4-4-----------|--------------------------------|
Eb:|-------------------------------|--------------------------------|

  we not live beyond this day
  the hot gates stand for all to see
  once we were destined to be kings
                                    unconquered spartans men were we 

           3 times                         1 time
Eb:|-------------------------------|--------------------------------|
Bb:|-------------------------------|--------------------------------|
Gb:|---------------------7-7--7-7--|-6-6-6-6-6-6-6-6-6-6-7-7--7-7---|
Db:|-6-6-6-6-6-6-6-6-6-6-5-5--5-5--|-4-4-4-4-4-4-4-4-4-4-5-5--5-5---|
Ab:|-4-4-4-4-4-4-4-4-4-4-----------|--------------------------------|
Eb:|-------------------------------|--------------------------------|







  go !    fight !    fuck !         kill !

           3 times                         1 time
Eb:|-------------------------------|--------------------------------|
Bb:|-------------------------------|--------------------------------|
Gb:|---------------------7-7--7-7--|-6-6-6-6-6-6-6-6-6-6-7-7--7-7---|
Db:|-6-6-6-6-6-6-6-6-6-6-5-5--5-5--|-4-4-4-4-4-4-4-4-4-4-5-5--5-5---|
Ab:|-4-4-4-4-4-4-4-4-4-4-----------|--------------------------------|
Eb:|-------------------------------|--------------------------------|


Eb:|---------------------------------------------|
Eb:|---------------------------------------------|
Bb:|---------------------------------------------|
Gb:|-----------------------7-7-7-------7-7-7-----|
Db:|--6-(6)----6-6-------6-5-5-5----6--5-5-5-----|
Ab:|--4-(4)----4-4-------4----------4------------|
Eb:|---------------------------------------------|

 guitarsolo
 
 riff 3 - play 2 times

           3 times                         1 time
Eb:|-------------------------------|--------------------------------|
Bb:|-------------------------------|--------------------------------|
Gb:|---------------------7-7--7-7--|-6-6-6-6-6-6-6-6-6-6-7-7--7-7---|
Db:|-6-6-6-6-6-6-6-6-6-6-5-5--5-5--|-4-4-4-4-4-4-4-4-4-4-5-5--5-5---|
Ab:|-4-4-4-4-4-4-4-4-4-4-----------|--------------------------------|
Eb:|-------------------------------|--------------------------------|

Eb:|-------|
Bb:|-------|
Gb:|-------|
Db:|-6-6---|
Ab:|-4-4---|
Eb:|-------|

end.
Comments