Sod - March Of The Sod Chords & Tabs

 

March Of The Sod Chords & Tabs

Sod Chords & Tabs

Version: 1 Type: Bass Tab 0 ratings
1 star 2 stars 3 stars 4 stars 5 stars
comments

March Of The Sod Bass Tab

   
                          MARCH OF THE S.O.D (Bassline)
                              As recorded by S.O.D
                   (From the Album SPEAK ENGLISH OR DIE)
 
Transcribed by stewo aka. stjePANJ
 
standard tuning EADG
 
  E E Q Q E E Q Q
|-----------------|----|
|-----------------|----|
|-----------------|----|Intro & Main 
|-0-0-1-2-0-0-3-2-|----|
 
[ Tab from: http://www.guitartabs.cc/tabs/s/sod/march_of_the_sod_btab.html ]
  E E E E E E E E   Q  Q  Q  Q    E E E E E E E E   Q  Q  Q  Q
|-----------------|-------------|-----------------|-------------|
|-----------------|-------------|-----------------|-------------|
|-------3---------|-------------|-------3---------|-------------| Comes between main parts
|-0-0-5---5-4-3-3-|-0--1--2--3--|-0-0-5---5-4-3-3-|-0--1--2--3--|
 

  E E E E E E E E   E E E E E E E E
|-----------------|-----------------|----|
|-----------------|-----------------|----|
|-----------------|-----------------|----| fast part towards the end(Finishes with main)
|-0-0-0-0-1-1-1-1-|-2-2-2-2-3-3-3-3-|----|
 
That should be it.I've tabbed this in about 20 minutes so there could be somethin'fucked up
But sounds ok to me.It's a very easy song to play and if something is wrong you'll figure it out.
 
Anyway mail me at stewo_diabolus@yahoo.com if you have any questions.
Comments