Sod - Free Dirty Needles Chords & Tabs

 

Free Dirty Needles Chords & Tabs

Sod Chords & Tabs

Version: 1 Type: Tab 0 ratings
1 star 2 stars 3 stars 4 stars 5 stars
comments

Free Dirty Needles Tab

##################################################################################
# This file is the author's own work and represents their interpretation of the  #
# song. You may only use this file for private study, scholarship, or research.  #
##################################################################################

free dirty needles

by S.O.D.
from the album 'bigger than the devil'

transcribed by Christian Reindel (creindel@gmx.de)
any questions or corrections-e-mail me

tune down 1/2 step

Intro 
         play 3 times                         than this part
Eb:|--------------------------------------|-----------------------------|
Bb:|--------------------------------------|-----------------------------|
Gb:|--------------------------------------|-----------------------------|
Db:|10-10-10--9-(9)----7--7--7--9-(9)-----|10-10-10--9--9--9--7-(7)-----|
Ab:|-8--8--8--7-(7)----5--5--5--7-(7)-----|-8--8--8--7--7--7--5-(5)-----|
Eb:|-8--8--8--7-(7)----5--5--5--7-(7)-----|-8--8--8--7--7--7--5-(5)-----|

now faster

Figure 1
Eb:|--------------------------------------------------------|
Bb:|--------------------------------------------------------|
Gb:|--------------------------------------------------------|
Db:|-9-9-9-9-9-9-9-9------------9-9-9-9-9-9-9-9-------------|
Ab:|-7-7-7-7-7-7-7-7-10-9-7-10--7-7-7-7-7-7-7-7-5-5-7-7-7---|
Eb:|-7-7-7-7-7-7-7-7--8-7-5-8---7-7-7-7-7-7-7-7-3-3-5-5-5---|
           
Eb:|--------------------------------------------------------------|
Bb:|--------------------------------------------------------------|
Gb:|--------------------------------------------------------------|
Db:|-9-9-9-9-9-9-9-9------------9-9-9-9-9-9-9-9-------------------|
Ab:|-7-7-7-7-7-7-7-7-10-9-7-10--7-7-7-7-7-7-7-7-5-5-2-5-5-7-7-7---|
Eb:|-7-7-7-7-7-7-7-7--8-7-5-8---7-7-7-7-7-7-7-7-3-3-0-3-3-5-5-5---|

Verse 1 - ...
[ Tab from: http://www.guitartabs.cc/tabs/s/sod/free_dirty_needles_tab.html ]
Figure 2  (2 times)
Eb:|--------------------------------------------------------|
Bb:|--------------------------------------------------------|
Gb:|--------------------------------------------------------|
Db:|-9-9-9-9-9-9-9-9------------9-9-9-9-9-9-9-9-------------|
Ab:|-7-7-7-7-7-7-7-7-10-9-7-10--7-7-7-7-7-7-7-7-5-5-7-7-7---|
Eb:|-7-7-7-7-7-7-7-7--8-7-5-8---7-7-7-7-7-7-7-7-3-3-5-5-5---|
           
Eb:|--------------------------------------------------------|
Bb:|--------------------------------------------------------|
Gb:|--------------------------------------------------------|
Db:|-9-9-9-9-9-9-9-9------------9-9-9-9-9-9-9-9-------------|
Ab:|-7-7-7-7-7-7-7-7-10-9-7-10--7-7-7-7-7-7-7-7-8-7-5-2-----|
Eb:|-7-7-7-7-7-7-7-7--8-7-5-8---7-7-7-7-7-7-7-7-6-5-3-0-----|



Chorus 1
   
Eb:|---------------------------------------------------------|
Bb:|---------------------------------------------------------|
Gb:|---------------------------------------------------------|
Db:|---------------------------------------------------------|
Ab:|-5-5-5-7-(7)-------5-5-5-2-(2)--------5-5-5-7-(7)--------|
Eb:|-3-3-3-5-(5)-------3-3-3-0-(0)--------3-3-3-5-(5)--------|

   
Eb:|---------------------------------------------------------|
Bb:|---------------------------------------------------------|
Gb:|---------------------------------------------------------|
Db:|-7-7-7---------------------------------------------------|
Ab:|-5-5-5-2-(2)-------5-5-5-7-(7)--------5-5-5-2-(2)--------|
Eb:|-5-5-5-0-(0)-------3-3-3-5-(5)--------3-3-3-0-(0)--------|

    
Eb:|----------------------------------------------|
Bb:|----------------------------------------------|
Gb:|----------------------------------------------|
Db:|--------------------------7-7-7-2-------------|
Ab:|--5-----------------------5-5-5-2-------------|
Eb:|--3-----------------------5-5-5-0-------------|

back to Figure 1 
Verse 2 with Figure 2 (2 times)
Chorus 2 same like Chorus 1

Outro
                         
Eb:|-------------------------------------|-----------------------------------|
Bb:|-------------------------------------|-----------------------------------|
Gb:|-------------------------------------|-----------------------------------|
Db:|10-10-10--9-(9)----7--7--7--9-(9)----|-10-10-10--9--(9)------------------|
Ab:|-8--8--8--7-(7)----5--5--5--7-(7)----|--8--8--8--7--(7)----8---7---5---2-|
Eb:|-8--8--8--7-(7)----5--5--5--7-(7)----|--8--8--8--7--(7)----6---5---3---0-|

                 
Eb:|--------------------------------------|-----------------------------|
Bb:|--------------------------------------|-----------------------------|
Gb:|--------------------------------------|-----------------------------|
Db:|10-10-10--9-(9)----7--7--7--9-(9)-----|10-10-10--9--9--9--7-(7)-----|
Ab:|-8--8--8--7-(7)----5--5--5--7-(7)-----|-8--8--8--7--7--7--5-(5)-----|
Eb:|-8--8--8--7-(7)----5--5--5--7-(7)-----|-8--8--8--7--7--7--5-(5)-----|

end.
Comments