Sod - Celtic Frosted Flakes Chords & Tabs

 

Celtic Frosted Flakes Chords & Tabs

Sod Chords & Tabs

Version: 2 Type: Tab 0 ratings
1 star 2 stars 3 stars 4 stars 5 stars
comments

Celtic Frosted Flakes Tab

celtic frosted flakes

by S.O.D.
from the album 'bigger than the devil'

transcribed by Christian Reindel (creindel@gmx.de)
any questions or corrections-e-mail me

tune down 1/2 step

Riff 1 - 4 times
   What ever happend to Celtic Frost ?...
Eb:|------------------------------------|
Bb:|----------------------3-------------|
Gb:|----------------------3-------------|
Db:|----------------------1-------------|
Ab:|--6-6-/-5-\-6---3--2--1-------------|
Eb:|--4-4-/-3-\-4---1--0----------------|

Riff 2 - 4 times
   Tom Warrior fell from a tree in cherry orchard ... 
Eb:|---------------------------------------|
Bb:|---------------------------------------|
Gb:|---------------------------------------|
Db:|---------------------------------------|
Ab:|-2^3^4--4-4-\-5-/-4--2--3--------------|
Eb:|--------2-2-\-3-/-2--0--1--------------|

[ Tab from: http://www.guitartabs.cc/tabs/s/sod/celtic_frosted_flakes_tab_ver_2.html ]
Riff 1 - 4 times
   What ever happend to Celtic Frost ?...
Eb:|------------------------------------|
Bb:|----------------------3-------------|
Gb:|----------------------3-------------|
Db:|----------------------1-------------|
Ab:|--6-6-/-5-\-6---3--2--1-------------|
Eb:|--4-4-/-3-\-4---1--0----------------|

Riff 2 - 4 times
   Tom Warrior is waiting for the emperor's return...
Eb:|---------------------------------------|
Bb:|---------------------------------------|
Gb:|---------------------------------------|
Db:|---------------------------------------|
Ab:|-2^3^4--4-4-\-5-/-4--2--3--------------|
Eb:|--------2-2-\-3-/-2--0--1--------------|

Riff 3 - 4 times
       huh                 ha
Eb:|---------------------------------------------------|
Bb:|------------------------------------3--------------|
Gb:|------------------------------------3--------------|
Db:|------------------------------------1--------------|
Ab:|-2-2-2-2-2-2-2-2-2-2-2-2-2-2-2-2-2--1--------------|
Eb:|-0-0-0-0-0-0-0-0-0-0-0-0-0-0-0-0-0-----------------|

Riff 1 
   What ever happend to Celtic Frost ?
Eb:|------------------------------------|
Bb:|----------------------3-------------|
Gb:|----------------------3-------------|
Db:|----------------------1-------------|
Ab:|--6-6-/-5-\-6---3--2--1-------------|
Eb:|--4-4-/-3-\-4---1--0----------------|

end.
Comments