Socialburn - Everyone Chords & Tabs

 

Everyone Chords & Tabs

Socialburn Chords & Tabs

Version: 2 Type: Tab 0 ratings
1 star 2 stars 3 stars 4 stars 5 stars
comments

Everyone Tab

   
Everyone: by Socialburn

NOTE:  I am a lone guitarist, but Socialburn had the luxury of 2 guitar players.
I have written this tab so that it can be played on one guitar (hence the drop
D tuning).  if you want to play it on 2 guitars, just splitt the lead and rythme
parts

Drop D tuning (D A D G B E)
\ = slide

INTRO:
E |-000000--------------------------------------------------------|
B |-000000--------------------------------------------------------|
G |-222222--------------------------------------------------------|
D |-222222-----------12---11----7---4-----------------------------|
A |-000000------------0-----0-----0---0---------------------------|
D |-----------------------0-----0-----0---0-----------------------|


VERSE:
... How was I to know you'd ever leave...
E |-000000----------------------------------------------------------------|
B |-000000----------------------------------------------------------------|
G |-222222----------------------------------------------------------------|
D |-222222-----------12---11----7----4------------------------------------|
A |-000000------------0-----0-----0----0----------------------------------|
D |-----------------------0-----0-----0----0------------------------------|

       |             X2
E |-000000-----------------------------------------------------     ---|
B |-000000-----------------------------------------------------     ---|
G |-222222-----------------------------------------------------     ---|
D |-222222-----------12---11---11\14---14-----------------  -----------|
A |-000000------------0-----0------0--------0------------------ -------|
D |-----------------------0-----0------0--------0------------------ ---|

CHORUS:
... With all the times you ran away...
E |----------------------------|
B |----------------------------|
G |----------------------------|
D |---7------2------9------12--|                  X4
A |---7------2------9------12--|
D |---7------2------9------12--|
(Just strum each one a few times, its really easy to pick up)

(VERSE)
(CHORUS)
Everyone, yah...
CHORUS2: Exact same thing as CHORUS, just with different lyrics

After CHORUS2, hold the D for another Measure then transfer into the Lead Break:
[ Tab from: http://www.guitartabs.cc/tabs/s/socialburn/everyone_tab_ver_2.html ]
E |-------------------------------------------------------------|
B |-------------------------------------------------------------|
G |-------------------------------------------------------------|
D |----12-12-12-12-12----------X-X-X-X-X-X----------------------|
A |----12-12-12-12-12----------X-X-X-X-X-X----------------------|
D |----12-12-12-12-12----------X-X-X-X-X-X----------------------|

LEAD BREAK
E |-----------------------------------------------------------|
B |----------------10~~---------------------------10~~--------|
G |---9--7--6------------7--6--7------9--7--6--------7--6--7--|
D |-----------------------------------------------------------|
A |-----------------------------------------------------------|
D |-----------------------------------------------------------|

E |------------------------------------------------|
B |--------------10~~------------------------------|
G |---9--7--6----------7--6--7------------6--7--6--|
D |----------------------------------7----9--------|
A |------------------------------------------------|
D |------------------------------------------------|

E |-------------------------------------------------------------------------|
B |-------------------10~~---------------------------------10~~-------------|
G |---7\9---7---6-----------7--6--7------7\9---7---6-------------7---6---7--|
D |-------------------------------------------------------------------------|
A |-------------------------------------------------------------------------|
D |-------------------------------------------------------------------------|

E |-------------------------------------------------------------|
B |-------------------10~~--------------------------------------|
G |---7\9---7---6----------7---6---7-----------------6---7---6--|
D |-------------------------------------------7----9------------|
A |-------------------------------------------------------------|
D |-------------------------------------------------------------|

BRIDGE:  (the muted scratching here is time sensitive, and sounds realllly nice when done right)
... But somehow, I know...
E |----------------------------------------------------------------|
B |----------------------------------------------------------------|
G |----------------------------------------------------------------|
D |--99--X-X-X-X---99---XX--X99---X-X-X-X--9-9-9---9\12---12(x16) -| X2
A |--99--X-X-X-X---99---XX--X99---X-X-X-X--9-9-9---9\12---12(x16) -|
D |--99--X-X-X-X---99---XX--X99---X-X-X-X--9-9-9---9\12---12(x16)--|

(CHORUS)
(CHORUS2) X2
on the end of the last CHORUS2, don't slide up to the D, hold and finish on the B


that's about it, its a really nice sounding song for the level of difficulty.

any complaints, comment, or credit card numbers(just kidding) are welcome at
supermansg88@yahoo.com

-Quicksteel-
Comments