Socialburn - Beautiful Chords & Tabs

 

Beautiful Chords & Tabs

Socialburn Chords & Tabs

Version: 1 Type: Tab 0 ratings
1 star 2 stars 3 stars 4 stars 5 stars
comments

Beautiful Tab

   
				Beautiful
				Socialburn  




    Intro and Chorus  

     E  mute  G   E  mute G   E mute  G    A    C
e------------------------------------------------------------
B------------------------------------------------------------
G------------------------------------------------------------
D---22--xxx-------22-xxx-333--22-xxx----------555555---------
A---22--xxx--555--22-xxx-333--22-xxx-555--777-333333---------
E---00--xxx--333--00-xxx-333--00-xxx-333--555----------------
              (play twice)

[ Tab from: http://www.guitartabs.cc/tabs/s/socialburn/beautiful_tab.html ]
Verse
     E       G        E          G
e--------------------------------------
B--------------------------------------
G--------------------------------------
D------2------------------2------------     
A---2--------5---------2--------5------
E-0--------3----3---0--------3----3----

Can’t you see, that the damage is done
I’m wiped away nothing to say you just set me free
to start again. where’s my friends
I can’t contend, I must be wrong
please check again, just take my hand and

(back to chorus E, G, E, G, E, G, E, G, E, G, E, G E, G ,A, C)
Kill this pain in my soul
don’t wanna feel anymore
lost the light on my own
cause you are so beautiful
so helplessly pure
lost the light on my own
on my own....

Boady22@yahoo.com
Comments