Social Eclipse - Fragility Chords & Tabs

 

Fragility Chords & Tabs

Social Eclipse Chords & Tabs

Version: 2 Type: Tab 0 ratings
1 star 2 stars 3 stars 4 stars 5 stars
comments

Fragility Tab

   
Fragility
Words and music by Dylan Kelley
9-01-01

Intro:(clean with chorus)
  Bbm             G#  F#   F  G#  F#   F
e-----1-------1--------------------------|
B----2-2-----2-2-------------------------|
G---3---3---3---3----5---3-------5---3---|
D--3-----3-3-----3--6---4--3----6---4--3-|
A-1-------1--------6---4---3---6---4---3-|
E-----------------4---2----1--4---2----1-|
  Bbm             G#  F#   F  G#  F#   F
e-----1-------1--------------------------|
B----2-2-----2-2-------------------------|
G---3---3---3---3----5---3-------5---3---|
D--3-----3-3-----3--6---4--3----6---4--3-|
A-1-------1--------6---4---3---6---4---3-|
E-----------------4---2----1--4---2----1-|
  Bbm     G#      F#      F   Bbm     G#      F#      F
e---------------------------------------------------------|
B---------------------------------------------------------|
G-6-6-6-6-5-5-5-5-3-3-3-3-2---6-6-6-6-5-5-5-5-3-3-3-3-2---|
D-8-8-8-8-6-6-6-6-4-4-4-4-3---8-8-8-8-6-6-6-6-4-4-4-4-3---|
A-8-8-8-8-6-6-6-6-4-4-4-4-3---8-8-8-8-6-6-6-6-4-4-4-4-3---|
E-6-6-6-6-4-4-4-4-2-2-2-2-1---6-6-6-6-4-4-4-4-2-2-2-2-1---|

  Bbm             G#  F#   F  G#  F#   F
e-----1-------1--------------------------|
B----2-2-----2-2-------------------------|
G---3---3---3---3----5---3-------5---3---|
D--3-----3-3-----3--6---4--3----6---4--3-|
A-1-------1--------6---4---3---6---4---3-|
E-----------------4---2----1--4---2----1-|
  Bbm             G#  F#   F  G#  F#   F
e-----1-------1--------------------------|
B----2-2-----2-2-------------------------|
G---3---3---3---3----5---3-------5---3---|
D--3-----3-3-----3--6---4--3----6---4--3-|
A-1-------1--------6---4---3---6---4---3-|
E-----------------4---2----1--4---2----1-|
[ Tab from: http://www.guitartabs.cc/tabs/s/social_eclipse/fragility_tab_ver_2.html ]
Verse 1:(clean with chorus)
  Bbm     G#      F#      F   Bbm     G#      F#      F
e---------------------------------------------------------|
B---------------------------------------------------------|
G-6-6-6-6-5-5-5-5-3-3-3-3-2---6-6-6-6-5-5-5-5-3-3-3-3-2---|
D-8-8-8-8-6-6-6-6-4-4-4-4-3---8-8-8-8-6-6-6-6-4-4-4-4-3---|
A-8-8-8-8-6-6-6-6-4-4-4-4-3---8-8-8-8-6-6-6-6-4-4-4-4-3---|
E-6-6-6-6-4-4-4-4-2-2-2-2-1---6-6-6-6-4-4-4-4-2-2-2-2-1---|
  Bbm     G#      F#      F
e-----------------------------|
B-----------------------------|
G-6-6-6-6-5-5-5-5-3-3-3-3-2---|
D-8-8-8-8-6-6-6-6-4-4-4-4-3---|
A-8-8-8-8-6-6-6-6-4-4-4-4-3---|
E-6-6-6-6-4-4-4-4-2-2-2-2-1---|

Chorus 1:(metal distortion)
  F     Bbm         F#          G#          F
e-------------------------------------------------|
B-------------------------------------------------|
G-2-2-2-6-6-6-6-6-6-3-3-3-3-3-3-5-5-5-5-5-5-2-2-2-|
D-3-3-3-8-8-8-8-8-8-4-4-4-4-4-4-6-6-6-6-6-6-3-3-3-|
A-3-3-3-8-8-8-8-8-8-4-4-4-4-4-4-6-6-6-6-6-6-3-3-3-|
E-1-1-1-6-6-6-6-6-6-2-2-2-2-2-2-4-4-4-4-4-4-1-1-1-|
  F     Bbm         F#          G#          F
e-------------------------------------------------|
B-------------------------------------------------|
G-2-2-2-6-6-6-6-6-6-3-3-3-3-3-3-5-5-5-5-5-5-2-2-2-|
D-3-3-3-8-8-8-8-8-8-4-4-4-4-4-4-6-6-6-6-6-6-3-3-3-|
A-3-3-3-8-8-8-8-8-8-4-4-4-4-4-4-6-6-6-6-6-6-3-3-3-|
E-1-1-1-6-6-6-6-6-6-2-2-2-2-2-2-4-4-4-4-4-4-1-1-1-|

Interlude 1: same as first part of intro

Verse 2: same as verse 1

Chorus 2: same as chorus 1

Interlude 2: same as interlude 1

Bridge: same as verses but with metal overdrive

Chorus 3: same as chorus 1 and 2 but repeat twice

Interlude 3: same as all the other ones

Bridge 2: same as bridge 1 but without lyrics

Final Chorus: same as chorus 3

Outro: same as interludes

Lyrics:
Was a pefect day
Early this morning
Then you left me here
Without no warning
You raised me up
Then you threw me away
I won't take that shit
Not another day
You indecisive bitch
Make up your fucking mind
If you won't be with me
Than happiness I'll find

I've got a right to know
About the shit you do
If you don't tell me things
I'm finding someone new
I've got a right to know
Why you won't bleed for me
Don't blame it on
Your fragility

You're fucked now I
Have clear perception
I'm starting to see
Through your deception
No more false hopes
Or empty dreams
Cuz nothing is
Like what it seems
Your hollow words
Cut like a knife
So get the fuck
Out of my life

I've got a right to know
About the shit you do
If you don't tell me things
I'm finding someone new
I've got a right to know
Why you won't bleed for me
Don't blame it on
Your fragility

You used to have me blind
Now you ran out of luck
You say you're so fragile
But I don't give a fuck!!!
You fucked me over twice
Now you're out of luck
You say you're so fragile
But I don't give a fuck!!!
You used to have me blind
Now you ran out of luck
You say you'll die without me
But I don't give a fuck!!!

I've got a right to know
About the shit you do
If you don't tell me things
I'm finding someone new
I've got a right to know
Why you won't bleed for me
Don't blame it on
Your fragility
Comments