Social Distortion - Under My Thumb Chords & Tabs

 

Under My Thumb Chords & Tabs

Social Distortion Chords & Tabs

Version: 1 Type: Tab 0 ratings
1 star 2 stars 3 stars 4 stars 5 stars
comments

Under My Thumb Tab

-------------------------------------------------------------------------------
                    under my thumb - social distortion
-------------------------------------------------------------------------------

tune down  1/2 step

  intro                                    verse
e|---------------------------------------|------------|---
b|---------------------------------------|------------|---
g|---------7--------------3--------------|---------7--|---
d|-4---2---7-----0---2/4------0---2/4--2-|--4--2---7--|---
a|-4---2---5-----------------------------|--4--2---5--|---
e|-2---0---------------------------------|--2--0------|---


  chorus
e|---------------------------------]
b|---------------------------------]
g|-------7--4----------7-----------]
d|-7-----7--4---4--2---7--7--------]
a|-7-----5--2---4--2---5--7--------]
e|-5------------2--0------5--------]
[ Tab from: http://www.guitartabs.cc/tabs/s/social_distortion/under_my_thumb_tab.html ]
  solo
e|---------------------------------------------------------------------------
B|---------------------------------------------------------------------------
G|-------------------------------------7---9--9---11--11---11--9---9--11--11-
D|-------7--9--9/11--9---9--9---7--7---7---9--9---11--11---11--9---9--11--11-
A|--/9-----------------------------------------------------------------------
E|---------------------------------------------------------------------------

e|---------------------------------------------------------------------------
B|---------------------------------------------------------------------------
G|-11--9---9--9---7---7----/11--11--11--11----9--9--9----7--7--7--7----7--6--
D|-11--9---9--9---7---7------------------------------------------------------
A|---------------------------------------------------------------------------
E|---------------------------------------------------------------------------
Comments