Social Distortion - The Creeps Chords & Tabs

 

The Creeps Chords & Tabs

Social Distortion Chords & Tabs

Version: 1 Type: Tab 0 ratings
1 star 2 stars 3 stars 4 stars 5 stars
comments

The Creeps Tab

THE CREEPS - Social Distortion

b=bend t=trill p=pull off
By:agent orange (damaged79@aol.com) s=slide br=bend and release

e|------------------------------------------------------------------7--7----9--
B|-7----7--7--7---7----7--7---7----7-------------------------------------------
G|-9b---9b-9b-9b--9b---9b-9b--9b---9br--7---7t9------------7--7----------------
D|-----------------------------------------------9---7/9-----------------------
A|-----------------------------------------------------------------------------
E|-----------------------------------------------------------------------------
real fast================================
e|-10---9----7---10---9-------7---7----10p7---------10p7---------10p7----------
B|------------------------10-----------------10p7----------10p7---------10p7---
G|-----------------------------------------------------------------------------
D|-----------------------------------------------------------------------------
A|-----------------------------------------------------------------------------
E|-----------------------------------------------------------------------------
=================================================================

e|--10p7--------10p7---------10p7----------10p7----------10p7------------7---7-
B|--------10p7--------10p7---------10p7----------10p7----------10p7------7---7-
G|-------------------------------------------------------------------(9b)------
D|-----------------------------------------------------------------------------
A|-----------------------------------------------------------------------------
E|-----------------------------------------------------------------------------
[ Tab from: http://www.guitartabs.cc/tabs/s/social_distortion/the_creeps_tab.html ]
e|-----7---7----10---7-7------7-------7--7----10----7--7-------7-------7--7----
B|-----7---7----10---7-7------7-------7--7----10----7--7-------7-------7--7----
G|-9b----------------------9b------9b-----------------------9b-----9b----------
D|-----------------------------------------------------------------------------
A|-----------------------------------------------------------------------------
E|-----------------------------------------------------------------------------

e|-10---7-7------7------7-7----10--7-7-----5-5---5---5---5-5-------------------
B|-10---7-7------7------7-7----10--7-7-----5-5---5---5---5-5---5---5-----------
G|------------9b-----9b--------------------------------------------7b----------
D|-----------------------------------------------------------------------------
A|-----------------------------------------------------------------------------
E|-----------------------------------------------------------------------------

e|-7------7------7-7---10---7-7------7------7--7---10---7-7-------7------7--7--
B|-7------7------7-7---10---7-7------7------7--7---10---7-7-------7------7--7--
G|-----9b-----9b------------------9b-----9b-------------------9b------9b-------
D|-----------------------------------------------------------------------------
A|-----------------------------------------------------------------------------
E|-----------------------------------------------------------------------------

e|--10---7-7------7-----7-7--10---7-7----5-5---5---5---5--5--------------------)
B|--10---7-7------7-----7-7--10---7-7----5-5---5---5---5--5---5---5------------)
G|-------------9b----9b-------------------------------------------7b-----------)
D|-----------------------------------------------------------------------------)
A|-----------------------------------------------------------------------------)
E|-----------------------------------------------------------------------------)
Comments