Social Distortion - Story Of My Life Chords & Tabs

 

Story Of My Life Chords & Tabs

Social Distortion Chords & Tabs

Version: 4 Type: Bass Tab 0 ratings
1 star 2 stars 3 stars 4 stars 5 stars
comments

Story Of My Life Bass Tab

   
Story of my Life Bass Tabs- Social Distortion

This is my first tab. I've seen a couple of bass tabs for this song and although they
sound like the actual song, it alwasy seemed to me as if it was missing certain parts.
So I took the time to figure it out on my own. This is how I hear and play it. Listen
to the song so you can understand it better. If you have any questions feel free to
email me at ca03etapia@yahoo.com

INTRO

G-------------------------------------------------------------------------------|
D--4-4-4-4----------------------------------------------------------------------|
A-----------2-2-2-2--4-4-4-4-4-4-4-4--------------2-2-2-2--4-4-4-4-4-4-4-4------|
E----------------------------------------2-2-2-2--------------------------------|

G-------------------------------------------------------------------------------|
D--4-4-4-4----------------------------------------------------------------------|
A-----------2-2-2-2--4-4-4-4-4-4-4-4--------------2-2-2-2--4-4-4-4-4-4-4-4------|
E----------------------------------------2-2-2-2--------------------------------|

G-------------------------------------------------------------------------------|
D--4-4-4-4----------------------------------------------------------------------|
A-----------2-2-2-2--4-4-4-4-4-2-1----------------------------------------------|
E----------------------------------4--------------------------------------------|

First chorus:

    (THIS PART ONLY 3 TIMES )                On fourth time, do this:

G-------------------------------------|-----------------------------------------|
D-------------------------------------|-----------------------------------------|
A---------2-2-2-2--4-4-4-4-4-4-4-4----|-----------2-2-2-2--4-4-4-4-4-2-1--------|
E-2-2-2-2-----------------------------|--2-2-2-2-------------------------4------|


VERSE - The whole verse is done twice

G------------------------------------------------------------------------------|
D------------------------------------------------------------------------------|
A---------2-2-2-2-4-4-4-4-4-2-1------------------------------------------------|
E-2-2-2-2-----------------------4----------------------------------------------|

G------------------------------------------------------------------------------|
D-------------------------------6----------------------------------------------|
A---------2-2-2-2-4-4-4-4-4-6-8------------------------------------------------|
E-2-2-2-2----------------------------------------------------------------------|
[ Tab from: http://www.guitartabs.cc/tabs/s/social_distortion/story_of_my_life_btab_ver_4.html ]
G------------------------------------------------------------------------------|
D------------------------------------------------------------------------------|
A---------2-2-2-2-4-4-4-4-4-2-1------------------------------------------------|
E-2-2-2-2-----------------------4----------------------------------------------|

G------------------------------------------------------------------------------|
D------------------------------------------------------------------------------|
A---------2-2-2-2-4-4-4-4-4-2-1------------------------------------------------|
E-2-2-2-2-----------------------4----------------------------------------------|

Main CHORUS:

 (THIS PART ONLY 2 TIMES )              On the third time,
					do this once:          (pause)
G-------------------------------------|-----------------------|--------------------------|
D-------------------------------------|-----------------------|--------------------------|
A--------2-2-2-2--4-4-4-4-4-4-4-4-----|-----------2-2-2-2--4--|----------2--4----4-2-1---|
E-2-2-2-2-----------------------------|--2-2-2-2--------------|-------2----------------4-|
-
fouth part of chorus ( play 3 times)
---------------------------------------|
---------------------------------------|
----------2-2-2-2--4-4-4-4-4-4-4-4-----|
-2-2-2-2-------------------------------|

Verse

Main Chorus

Guitar solo-  Play (Set A) 4 times followed by (set B) 1 time

Set A:
G------------------------------------|
D------------------------------------|
A----------2-2-2-2--4-4-4-4-4-4-4-4--|
E-2-2-2-2----------------------------|

G------------------------------------|
D--4-4-4-4---------------------------|
A-----------2-2-2-2--4-4-4-4-4-4-4-4-|
E------------------------------------|

Set B:
G----------------------------------|
D----------------------------------|
A---------2-2-2-2-4-4-4-4-4-2-1----|
E-2-2-2-2-----------------------4--|

G----------------------------------|
D----------------------------------|
A---------2-2-2-2-4-4-4-4-4-2-1----|
E-2-2-2-2-----------------------4--|

G----------------------------------|
D----------------------------------|
A---------2-2-2-2--4----4-2-1------|
E-2-2-2-2------------4--------4----|

G----------------------------------|
D----------------------------------|
A---------2-2-2-2--4----4-2-1------|
E-2-2-2-2------------4--------4----|

Verse

Last Chorus:

   Play this 10 times
G-------------------------------------|
D-------------------------------------|
A---------2-2-2-2--4-4-4-4-4-4-4-4----|
E-2-2-2-2-----------------------------|

play this once
G-------------------------------------|
D-------------------------------------|
A---------2-2-2-2--4-4-4-4------------|
E-2-2-2-2-----------------------------|
Final notes:

G--------------------------------|
D--------------------------------|
A-4--2--1------------------------|
E----------4-----2-(let it ring)-|
Comments