Social Distortion - Making Believe Chords & Tabs

 

Making Believe Chords & Tabs

Social Distortion Chords & Tabs

Version: 1 Type: Chords 0 ratings
1 star 2 stars 3 stars 4 stars 5 stars
comments

Making Believe Chords

   
"Making Believe" - Social Distortion


Track 03 - Somewhere Between Heaven And Hell

Notes: tune down 1/2 step / add palm muting as necessary

Intro: (let chords ring)
G   C  G      D          G

       G   C                  G 
Making believe...that you still love me
      D                      G
It's leaving me...alone and so blue
            G   C                G
I'll always dream...but I'll never own you
         D                  G
Making believe...is all I can do


Verse 1:
         G   C                  G 
Making believe...that you still love me
D                     G
It's leaving me...alone and so blue
            G   C                G
I'll always dream...but I'll never own you
         D                  G
Making believe...is all I can do

[ Tab from: http://www.guitartabs.cc/tabs/s/social_distortion/making_believe_crd.html ]
Verse 2:
             D                                 G
I can't hold you close...darling when you're not with me
           D            G
You're somebody's love...you'll never be mine
         G   C               G 
Making believe...I'll spend my lifetime
D                     G
Loving you...and making believe


Riff:
e-|-------------------------------------------------
B-|-------------------------------------------------
G-|-------------------------------------------------
D-|-------------------------------------------------
A-|-2-2-----2-5-5-7-5-7-5-5-2-2-2---------2-3-2-----
E-|-----5-3-----------------------5-3-2-5-------5-3-

e-|-------------------------------------------------|
B-|-------------------------------------------------|
G-|-4-4-----4-7-7-9-7-9-7-7-4-4-4---------4-5-4-----|
D-|-----7-5-----------------------7-5-4-7-------7-5-|
A-|-------------------------------------------------|
E-|-------------------------------------------------|

Repeat Verse 2

Repeat Riff

Repeat Verse 1

Repeat Verse 2


End:
            D       G
Just loving you...and making believe
            D                G  C G C G
Just loving you...and making believe
Comments