Social Distortion - Its The Law Chords & Tabs

 

Its The Law Chords & Tabs

Social Distortion Chords & Tabs

Version: 1 Type: Tab 1 rating
1 star 2 stars 3 stars 4 stars 5 stars
comments

Its The Law Tab

Social Distortion
it's the law
by Wolfstrike
wolfstrike2@usinmail.com



(Social Distortion tunes one step lower) 


(u= up, d= down, strum previous chord)

         

E:------------------------------------------------------------------|
B:------------------------------------------------------------------|
G:-----9------------9---------------12---------------7--------------|
D:--9--9------------9---------------12---------------7--------------|
A:--9--7------------7---------------10---------------5--------------|
E:--7--7--d-u-d-u---7--d-u-d-u-d-u--10---d-u-d-u-d-u-5-d-u-d-u-d-u--|





          (....we're sittin here in this cell...)
         (palm mute chords)

         |.........|  |............|    |..........|  |...........|

E:-----------------------------------------------------------------|
B:-----------------------------------------------------------------|
G:-----9------------9---------------12--------------7--------------|
D:--9--9------------9---------------12--------------7--------------|
A:--9--7------------7---------------10--------------5--------------|
E:--7--7--d-u-d-u---7--d-u-d-u-d-u--10--d-u-d-u-d-u-5-d-u-d-u-d-u--|

     


      (...it's the law......)

guitar 1                                         (end with)

E:-----------------------------------------------|---------------|
B:--10---10-10---12---13--13--13--13----12-------|--13----(13)---|
G:--9----9--9----11---12--12--12--12----11-------|--12----(12)---|
D:--7----7--7----9----10--10--10--10----9--------|--10----(10)---|
A:-----------------------------------------------|---------------|
E:-----------------------------------------------|---------------|




      (...it's the law......)

guitar 2                                          (end with)

E:----------------------------------------------|--------------|
B:----------------------------------------------|--------------|
G:----------------------------------------------|--------------|
D:--7----7-7----9----10-10-10-10---9------------|--10-----(10)-|
A:----------------------------------------------|--------------|
E:--5----5-5----7----8--8--8--8----7------------|--8------(8)--|





         (rytham change during second verse)
          (.......)
         (palm mute chords)

         

         |.........|  |............|    |..........|  |...........|

E:-----------------------------------------------------------------|
B:-----------------------------------------------------------------|
G:-----9------------9---------------12--------------7--------------|
D:--9--9------------9---------------12--------------7--------------|
A:--9--7------------7---------------10--------------5--------------|
E:--7--7--d-u-d-u---7--d-u-d-u-d-u--10--d-u-d-u-d-u-5-d-u-d-u-d-u--|



                                     (..for his wife)

         |.........|  |............|    |..........|  |...........|
[ Tab from: http://www.guitartabs.cc/tabs/s/social_distortion/its_the_law_tab.html ]
E:----------------------------------------------------------------|
B:----------------------------------------------------------------|
G:-----9------------9---------------7---------------4-------------|
D:--9--9------------9---------------7---------------4-------------|
A:--9--7------------7---------------5---------------2-------------|
E:--7--7--d-u-d-u---7--d-u-d-u-d-u--5---d-u-d-u-d-u-2-d-u-d-u-d-u-|









   leads

E:--0--0-----0--0--0----0----0---0---0-|--0--0---0-0--0--0---s7-------|
B:--0--5-----7--8-s7----5----3--s5---5-|--0--5---7-8-s7--5------------|
G:-------------------------------------|------------------------------|
D:-------------------------------------|------------------------------|
A:-------------------------------------|------------------------------|
E:-------------------------------------|------------------------------|




E:----------------------------|------------------------------|
B:----------------------------|------------------------------|
G:--b9--b9--b9--7---s9---(9)--|------------------------------|
D:----------------------------|-----0----------------2---(2)-|
A:----------------------------|--2-----2-2---0-h2-2----------|
E:----------------------------|------------------------------|



E:--0--0-----0--------------------------|---s7------(7)--|
B:--0--0-----0--------------------------|----------------|
G:--4--4--2--4----2-2-2-p0--------------|----------------|
D:-------------------------h4---2---(2)-|----------------|
A:--------------------------------------|----------------|
E:--------------------------------------|----------------|






  next leads

E:--0---0-----0--0--0----0----0---0---0-|--0---0---0-0--0--0---s7------|
B:--0---5-----7--8-s7----5----3--s5---5-|--0---5---7-8-s7--5-----------|
G:--------------------------------------|------------------------------|
D:--------------------------------------|------------------------------|
A:--------------------------------------|------------------------------|
E:--------------------------------------|------------------------------|





E:-------------------------|---b17---b17--b17--15--------------|
B:-------------------------|-----------------------17----------|
G:-----7------7--s9---(9)--|-----------------------------------|
D:--9------9---------------|-----------------------------------|
A:-------------------------|-----------------------------------|
E:-------------------------|-----------------------------------|


E:--------------------------|
B:--------------------------|
G:-----7-----7---9-----(9)--|
D:--9-----9-----------------|
A:--------------------------|
E:--------------------------|

E:-----------------------------|---------------------------|
B:---12-----12---12----12--12--|---12----12--12----12--12--|
G:--b14----b14--b14---b14-b14--|--b14---b14-b14---b14-b14--|
D:-----------------------------|---------------------------|
A:-----------------------------|---------------------------|
E:-----------------------------|---------------------------|



Comments