Social Distortion - Dont Drag Me Down Chords & Tabs

 

Dont Drag Me Down Chords & Tabs

Social Distortion Chords & Tabs

Version: 6 Type: Tab 0 ratings
1 star 2 stars 3 stars 4 stars 5 stars
comments

Dont Drag Me Down Tab

Intro
e----------------------------------------------------
b--/8------------------------------------------------
g-----8--------------------8---10/12-12-12-12-10-12-- 
d---------10-----10-10-10----------------------------
a-------------11-------------------------------------
e----------------------------------------------------
[ Tab from: http://www.guitartabs.cc/tabs/s/social_distortion/dont_drag_me_down_tab_ver_6.html ]
Riff
e----------------------------------------------------
b----------------------------------------------------
g--5-----------------------8-------------------------
d--5-8times---6------------8---8times---8------------
a--3----------6---8times---6------------8--8times----
e-------------4-------------------------6------------

Riff 2
e----------------------------------------------------
b----------------------------------------------------
g--5-----------8-----------12-----------10-----------
d-----8times------8times-------8times-------8times---
a--3-----------6-----------10-----------8------------
e----------------------------------------------------

Submitted by Jeremy Hayward,     Red Deer, Alberta.

 This is everything but the solo shit, and ill put that on as soon as possible.
Comments