Social Distortion - Dont Drag Me Down Chords & Tabs

 

Dont Drag Me Down Chords & Tabs

Social Distortion Chords & Tabs

Version: 1 Type: Tab 0 ratings
1 star 2 stars 3 stars 4 stars 5 stars
comments

Dont Drag Me Down Tab

OK here´s the tab. I´m sure like a 90%, because the 2 solo not sure if its like this.
Anyway. Enjoy it:

Bass Intro
g|-------------------------------------|
d|-------------------------------------|
a|----33333----66666-------------------|
e|-------44444-------66666-------------|

First a pick slide in "A"

e|--------------------------------------------|
b|--------------------------------------------|
g|----12--8--5--3--5--8--12--12--12-10--12--8-|
d|--------------------------------------------|
a|--------------------------------------------|
E|--------------------------------------------|

then the chords is very easy only 4 chords That´s the verse,
the pre-chorus, the chorus, etc...

e|--------------------------------------------|
b|--------------------------------------------|
g|----5555------8888--------------------------|
d|----5555-6666-8888-8888---------------------|
a|----3333-6666-6666-8888---------------------|
E|---------4444------6666---------------------|

The first solo

e|--------8-8--------8-8--------8-8--------8-8--------8-8---
B|-11b(13)----11b(13)----11b(13)----11b(13)----11b(13)------
G|----------------------------------------------------------
D|----------------------------------------------------------
A|----------------------------------------------------------
E|----------------------------------------------------------

e--------------------------
B--11-11-11-8-6---6-8-6----
G---------------8-------8-5
D--------------------------
A--------------------------
E--------------------------

e---------------------------------------------------------
B-6-6-6-8-8-11-8-6---6-8-6-------6-6-6-8-8-11-8-6---6-----
G------------------8-------8-5--------------------8---8-5-
D---------------------------------------------------------
A---------------------------------------------------------
E---------------------------------------------------------

(~) = let note ring
e---------------------------------------------------|
B---------------------------------------------------|
G-5~~5~~5~~5~~5~~5~~5~~5~7~5~~5~~5~~5~~5~~5~~5~~~~~~|
D---------------------------------------------------|
A---------------------------------------------------|
E---------------------------------------------------|
[ Tab from: http://www.guitartabs.cc/tabs/s/social_distortion/dont_drag_me_down_tab.html ]
the second solo

e--------8-8--------8-8--------8-8--------8-8--------8-8---
B-11b(13)----11b(13)----11b(13)----11b(13)----11b(13)------
G----------------------------------------------------------
D----------------------------------------------------------
A----------------------------------------------------------
E----------------------------------------------------------

e---------------------------
B--11-11-11-8-6---6-8-6-----
G---------------8-------8-5-
D---------------------------
A---------------------------
E---------------------------

e-------------------------------------------------------8-8-8-
B--6-8bp6---6-8bp6---6-8bp6---6-8bp6---6-8-8-11-8-6---6-------
G---------5--------5--------5--------5--------------8---------
D-------------------------------------------------------------
A-------------------------------------------------------------
E-------------------------------------------------------------

e--------8-8--------8-8--------8-8--------8-8--------8-8---
B-11b(13)----11b(13)----11b(13)----11b(13)----11b(13)------
G----------------------------------------------------------
D----------------------------------------------------------
A----------------------------------------------------------
E----------------------------------------------------------

e-----------------------------------
B--13-13--16--16-16b(18)-16--13-----
G-------------------------------15--
D-----------------------------------
A-----------------------------------
E-----------------------------------

e------------------------------------------------------|
B-6-6-6-8-8-11-8-6---6-8-6-------6-6-6-8-8-11-8-6---6--|
G------------------8-------8-5--------------------8----|
D------------------------------------------------------|
A------------------------------------------------------|
E------------------------------------------------------|


e|--------------------------------------------|
b|--------------------------------------------|
g|----12--8--5--3--5--8--12--12--12-10--12--8-|
d|--------------------------------------------|
a|--------------------------------------------|
E|--------------------------------------------|

 that´s all the song I hope u like it thanx, good luck, cause the solo song
aren´t easy...  


Comments