Social Distortion - Dear Lover Chords & Tabs

 

Dear Lover Chords & Tabs

Social Distortion Chords & Tabs

Version: 2 Type: Tab 0 ratings
1 star 2 stars 3 stars 4 stars 5 stars
comments

Dear Lover Tab

   
---------------------------------------------------------------------
		     Social Distortion: Dear Lover
---------------------------------------------------------------------

Hi.Ive decided to do another one on the White Light White Heat White Trash album.
This songs piss easy. Its the first one on the album.
Enjoy.Email me if u got any coments(tombuttcrunch116@hotmail.com).

[intro]
   F5             C#5                 G#5         D#5
---------------------------------------------------------------------
--------------------------------------------------8-8-8--8--9-9-8-8-8
---10-10-10101010---------------------------------8-8-8--8--8-8-8-8-8
---10-10-10101010-11--11--11-11-11-11-6--6--6-6-6-8-8-8--8--8-8-8-8-8
---8--8--8-8-8-8--11--11--11-11-11-11-6--6--6-6-6-6-6-6--6--6-6-6-6-6
------------------9---9---9--9--9--9--4--4--4-4-4--------------------

x4 then:

--------
--------
---10---
---10---
---8----
--------

   F5        G#5       C#5      D#5
----------------------------------------
----------------------------------------
---10-10-10--12-12-12--6--6--6--8-8-8---
---10-10-10--12-12-12--6--6--6--8-8-8---
---8--8--8---11-11-11--4--4--4--6-6-6---
----------------------------------------
x4

[verse]
F5   G#5 C#5       D#5
Loving,   over and over again now 
It ain't nothing girl, til you've felt the pain 
Up against the wall, why does love always have to hurt 
Your scratches run across my back and then a tear 

[Chorus]
F5       C#5   G#5      D#5
    Dear Lover, I can't take the pain no more 
    Dear Lover, I pick my heart up from the floor 
    Dear Lover, I can't believe its come to this 
    Dear Lover, give me one last painful kiss
                                        (^go straight into fill)

[fill]
----------------------------------------
----------------------------------------
---10-10-10--12-12-12--6--6--6--8-8-8---
---10-10-10--12-12-12--6--6--6--8-8-8---
---8--8--8---11-11-11--4--4--4--6-6-6---
----------------------------------------

[verse]
There ain't nothin', in this world for free now 
So how high of a price will you pay 
Hear the screams so loud, wake up to the broken glass 
It's a scene from bad to worse, and many more tears 
[ Tab from: http://www.guitartabs.cc/tabs/s/social_distortion/dear_lover_tab_ver_2.html ]
[Chorus]
F5       C#5   G#5      D#5
    Dear Lover, I can't take the pain no more 
    Dear Lover, I pick my heart up from the floor 
    Dear Lover, I can't believe its come to this 
    Dear Lover, give me one last painful kiss

play this note through fill at end of chorus 2:
------
------
------
------
---8--
------

[solo]
--------------------------------------------------------------
--------------------------------------------------------------
--------------------------------------------------------------
--------------------------------------------------------------
---8-8--10-11-11------8h10-11-11---11-11-/13-/15-15-\13-------
------------------9-9-----------------------------------------

---4----------------------------------------------------------
-----4-4-4h6-4h6-6-6-6-6-4-4-4-4h6-6-6-6-4-4-4--4-4-4-4-1-1---
------------------------------------------------------------3-
--------------------------------------------------------------
--------------------------------------------------------------
--------------------------------------------------------------

--------------------------------------------------------------
---/13-13-13-13-13-13-16-16-16-13-13-13-11-11-13-13-13-13-----
--------------------------------------------------------------
--------------------------------------------------------------
--------------------------------------------------------------
--------------------------------------------------------------

--------------------------------------------------------------
---\11-\9-9-9/11-11-------------------------------------------
--------------------------------------------------------------
--------------------------------------------------------------
--------------------------------------------------------------
--------------------------------------------------------------

--------------------------------------------------------------
--------------------------------------------------------------
--------------------------------------------------------------
--------------------------------------------------------------
---8-8--10-11-11------8h10-11-11---11-11-/13-/15-15-\13--/15--
------------------9-9-----------------------------------------

[Chorus]
F5       C#5   G#5      D#5
    Dear Lover, I can't take the pain no more 
    Dear Lover, I pick my heart up from the floor 
    Dear Lover, I can't believe its come to this 
    Dear Lover, give me one last painful kiss

one last kiss
one last kiss
one last kiss

-------
-------
---10--
---10--
---8---
-------
Comments