Social Distortion - Blank Chords & Tabs

 

Blank Chords & Tabs

Social Distortion Chords & Tabs

Version: 1 Type: Bass Tab 0 ratings
1 star 2 stars 3 stars 4 stars 5 stars
comments

Blank Bass Tab

ARTIST - DISTORTED
SONG - BLANK
ALBUM - SOCIAL DISTORTION
TABBED BY - DOM WHITE
BASSIST - DOM WHITE

THIS SONG IS REALLY EASY TO PLAY AND I MADE IT IN ABOUT FIVE MINUTES.


INTRO

G-0-00-------------
D---------0-00-----
A-----0-00----4-44-    X2
E------------------

VERSE
[ Tab from: http://www.guitartabs.cc/tabs/s/social_distortion/blank_btab.html ]
G-0-00000----------------------
D---------------0-00000--------    X3
A--------0-00000-------4-44444-
E------------------------------

CHORUS
G-00000000------------------------
D-----------------0000000---------    X2
A---------00000000-------44444444-
E---------------------------------

BRIDGE
G-0--------------------
D------------0---------  X2
A-------0-----------44-
E----------------------


SONG ORDER
INTRO X2
VERSE X3
CHORUS X2
BRIDGE X2

ALL ABOVE X2
Comments