Social Code - Beautiful Chords & Tabs

 

Beautiful Chords & Tabs

Social Code Chords & Tabs

Version: 1 Type: Tab

Beautiful Tab

   
----------------------------------------------------------------------------
			     Beautiful - Social Code
----------------------------------------------------------------------------

Tabbed by: kiefermatot

Email: bat6man9@hotmail.com

Tuning: Drop D


Intro:

This is done on bass, but you can play it on guitar if you'd like.
e|-------------------------------------------------------------------------|
B|-------------------------------------------------------------------------|
G|-------------------------------------------------------------------------|
D|-------------------------------------------------------------------------|
A|-------------------------------------------------------------------------|
D|-3--3--3--3--3--3--3-3--3--3--3--3---------------------------------------|

Pick slide, then:

|--------------------------------------------------------------------------|
|--------------------------------------------------------------------------|
|--------------------------------------------------------------------------|
|--6--6--8--10--3--3--3--3--1--8--6--5--5--5--5-----------------3v~--------|
|--6--6--8--10--3--3--3--3--1--8--6--5--5--5--5--THIS x2 THEN:-------------|
|--6--6--8--10--3--3--3--3--1--8--6--5--5--5--5----------------------------|

Verse:                                  
|----------------------------------------| 
|----------------------------------------|
|----------------------------------------|
|------------------3--5h6p5-3-6--8h10p8--|
|--3-3-3-3-3-3-3-0-3~-------3-6~---------|
|--3-3-3-3-3-3-3-0-3~-------3-6~---------|
PM . . . . . . . .
|----------------------------------------| 
|----------------------------------------|
|----------------------------------------|
|------------------3--5h6p5-3-6--8h10^---|
|--3-3-3-3-3-3-3-0-3~-------3-6~---------|
|--3-3-3-3-3-3-3-0-3~-------3-6~---------|    x2
PM . . . . . . . .

Chorus:
|----------------------------------------------------------------------|
|----------------------------------------------------------------------|
|----------------------------------------------------------------------|
|--6--6--8--10--3--3--3--3--1--8--6--5--5--5--5------------------------|
|--6--6--8--10--3--3--3--3--1--8--6--5--5--5--5------------------------|
|--6--6--8--10--3--3--3--3--1--8--6--5--5--5--5------------------------|  x2
[ Tab from: http://www.guitartabs.cc/tabs/s/social_code/beautiful_tab.html ]
Verse:                                  
|----------------------------------------| 
|----------------------------------------|
|----------------------------------------|
|------------------3--5h6p5-3-6--8h10p8--|
|--3-3-3-3-3-3-3-0-3~-------3-6~---------|
|--3-3-3-3-3-3-3-0-3~-------3-6~---------|
PM . . . . . . . .
|----------------------------------------| 
|----------------------------------------|
|----------------------------------------|
|------------------3--5h6p5-3-6--8h10^---|
|--3-3-3-3-3-3-3-0-3~-------3-6~---------|
|--3-3-3-3-3-3-3-0-3~-------3-6~---------|    x2
PM . . . . . . . .


Chorus:
|----------------------------------------------------------------------|
|----------------------------------------------------------------------|
|----------------------------------------------------------------------|
|--6--6--8--10--3--3--3--3--1--8--6--5--5--5--5------------------------|
|--6--6--8--10--3--3--3--3--1--8--6--5--5--5--5------------------------|
|--6--6--8--10--3--3--3--3--1--8--6--5--5--5--5------------------------|  x4

Bridge:
|---------------------------------------------------------------------|
|---------------------------------------------------------------------|
|-15--13--6--13-------------------------------------------------------|
|-15--13--6--13--1~---------------------------------------------------|
|-13--11--4--11--1~---------------------------------------------------|
|----------------1~---------------------------------------------------|   x2

Bridge - Second Part:                     sticatto notes
|--------------------------------------------------------------------------|
|--------------------------------------------------------------------------|
|--------------------------------------------------------------------------|
|--6-6-6-6-6-6-6-66-5-5-5-5-5-5-5h6p5-3-3-3-3-3-3-3-33-1-1-1-1-1-1-1-1-----|
|--------------------------------------------------------------------------|
|--------------------------------------------------------------------------|

Chorus:
|----------------------------------------------------------------------|
|----------------------------------------------------------------------|
|----------------------------------------------------------------------|
|--6--6--8--10--3--3--3--3--1--8--6--5--5--5--5------------------------|
|--6--6--8--10--3--3--3--3--1--8--6--5--5--5--5------------------------|
|--6--6--8--10--3--3--3--3--1--8--6--5--5--5--5------------------------|  x4

Outro:
|----------------------------------------------------------------------|
|----------------------------------------------------------------------|
|-13--13--13--13-12-12-------------------------------------------------|
|-x---x---x---x--x--x--------------------------------------------------|
|-11--11--11--11-10-10-------------------------------------------------|
|----------------------------------------------------------------------|  x2

End On:
|----|
|----|
|-13-|
|--x-|
|-11-|
|----|


| /  slide up
| \  slide down
| h  hammer-on
| p  pull-off
| ~  vibrato
| +  harmonic
| x  Mute note
============================================================================