Soapdish - Tensionado Chords & Tabs

 

Tensionado Chords & Tabs

Soapdish Chords & Tabs

Version: 7 Type: Tab

Tensionado Tab

Tensionado Tab by Soapdish, www.Ultimate-Guitar.Com


Solo sa Tensionado.. sana magustohan nyo….. 
Please support “KAPAYAS 200X”… Ü 

Paki rate din po…. Ty….

|----------------------------------7—9b10-7------7-9b10-7------7---14-|
|---10—8h10-12—9---9h10--7----7h9---------—-10-------------10---------|
|----------------9---------7------------------------------------------|
|---------------------------------------------------------------------|
|---------------------------------------------------------------------|
|---------------------------------------------------------------------|
[ Tab from: http://www.guitartabs.cc/tabs/s/soapdish/tensionado_tab_ver_7.html ]
|---14--12------12--------------------------8b9-8b9-------------------|
|-----------14------13b14-12--10-------9h10---------------7h9-9s10----|
|---------------------------------9h11----------------6h9-------------|
|---------------------------------------------------------------------|
|---------------------------------------------------------------------|
|---------------------------------------------------------------------|

|------------------------------12—12s14-------------------------------|
|---7--10--12---12s14--12—-14-----------------------------------------|
|---------------------------------------------------------------------|
|---------------------------------------------------------------------|
|---------------------------------------------------------------------|
|---------------------------------------------------------------------|


hehe! masaya po manggaya ng tab ng iba!
Pakirate na lang pow! binabati ko nga pla c romvil, mark, at anjo!
                                    
                                                 nagmamahal,
                                                      Joey