Soapdish - Tensionado Chords & Tabs

 

Tensionado Chords & Tabs

Soapdish Chords & Tabs

Version: 5 Type: Tab

Tensionado Tab

solo:
e|----------------------------------------------------------------------------------------12/14b--|
B|--10~\-----10-12-----------------------------------12--14h15-------------14-14-12----12---------|
G|-------/11--------13---------13h14---11---------13-----------14h16-14-16----------14------------|    
D|---------------------14--/14------------12~-/14-------------------------------------------------|
A|------------------------------------------------------------------------------------------------|
E|------------------------------------------------------------------------------------------------|

[ Tab from: http://www.guitartabs.cc/tabs/s/soapdish/tensionado_tab_ver_5.html ]
e|--12h14p12----12--------------------------------------------------------------------------------------------|
B|-----------14----14----12-------------------14-14b------------------------------------------------17-17/19--|
G|--------------------------14----------14-16----------------------14----14-14--16-16--18-18--16-18-----------|
D|--------------------------------14-16----------------------14-16----16--------------------------------------|
A|-----------------------------------------------------14-16--------------------------------------------------|
E|------------------------------------------------------------------------------------------------------------|