Soapdish - Dahil Sa Ulan Chords & Tabs

 

Dahil Sa Ulan Chords & Tabs

Soapdish Chords & Tabs

Version: 3 Type: Tab

Dahil Sa Ulan Tab

Dahil sa Ulan
Soapdish

E|----------------------------------------------------------------|
B|----------------------------------------------------------------|
G|-----2-1-2----------2-1-2-----------2-1-2-----------2-1-2-------|
D|-----------2-2-2----------2-2-0-----------2-2-2-----------2-2-0-|
A|-0-0------------0-0-------------4-4-------------4-4-------------|
E|----------------------------------------------------------------|
[ Tab from: http://www.guitartabs.cc/tabs/s/soapdish/dahil_sa_ulan_tab_ver_3.html ]
E|----------------------------------------------------------------|
B|----------------------------------------------------------------|
G|-----2-1-2-----------2-1-2-----2/10--10h12--10--9---------------|
D|-----------2-2-2-----------2-2----------------------------------|
A|----------------------------------------------------------------|
E|-2-2-------------2-2--------------------------------------------|



mer ule gmawa nto…
para s mga kklase q s st. Claire.. :)
kht mlakas ang topak nyo
mhal q kyo!