Snow Patrol - Youre All That I Have Chords & Tabs

 

Youre All That I Have Chords & Tabs

Snow Patrol Chords & Tabs

Version: 1 Type: Tab

Youre All That I Have Tab

   
-------------------------------------------------------------------------------
			     You're All That I Have - Snow Patrol
-------------------------------------------------------------------------------
Tabbed by: Aron S*
Email: goodsum@hotmail.com

Tuning: standard


Intro/Verse:

   E                A               E               A
e|-------------------------------------------------------------------|
B|-------------------------------------------------------------------|
G|-------------------------------------------------------------------|
D|--2-2-2-2-2-2-2-2-7-7-7-7-7-7-7-7-2-2-2-2-2-2-2-2-7-7-7-7-7-7-7-7--|
A|--2-2-2-2-2-2-2-2-7-7-7-7-7-7-7-7-2-2-2-2-2-2-2-2-7-7-7-7-7-7-7-7--| 
E|--0-0-0-0-0-0-0-0-5-5-5-5-5-5-5-5-0-0-0-0-0-0-0-0-5-5-5-5-5-5-5-5--|

[ Tab from: http://www.guitartabs.cc/tabs/s/snow_patrol/youre_all_that_i_have_tab.html ]
(the bit over the top is something like this)
e|-----------------------------------|
B|-----------------------------------|
G|--9-9-9-9--/13-13-13-13--\4-4-4-4--|
D|--x-x-x-x---x--x--x--x----x-x-x-x--|
A|--7-7-7-7--/11-11-11-11--\2-2-2-2--|
E|-----------------------------------|


Pre-Chorus:

    B               A
e|-----------------------------------|
B|-----------------------------------|
G|-----------------------------------|
D|--9-9-9-9-9-9-9-9-7-7-7-7-7-7-7-7--|
A|--9-9-9-9-9-9-9-9-7-7-7-7-7-7-7-7--|
E|--7-7-7-7-7-7-7-7-5-5-5-5-5-5-5-5--|



Chorus:

    E                               A
e|-------------------------------------------------------------------|
B|-------------------------------------------------------------------|
G|--9-9-9-9-9-9-9-9-9-9-9-9-9-9-9-9----------------------------------|
D|--9-9-9-9-9-9-9-9-9-9-9-9-9-9-9-9-7-7-7-7-7-7-7-7-7-7-7-7-7-7-7-7--|
A|--7-7-7-7-7-7-7-7-7-7-7-7-7-7-7-7-7-7-7-7-7-7-7-7-7-7-7-7-7-7-7-7--|
E|----------------------------------5-5-5-5-5-5-5-5-5-5-5-5-5-5-5-5--|



| /  slide up
| \  slide down
| h  hammer-on
| p  pull-off
| ~  vibrato
| +  harmonic
| x  Mute note
===============================================================================