Snow Patrol - Wow Chords & Tabs

 

Wow Chords & Tabs

Snow Patrol Chords & Tabs

Version: 2 Type: Tab 0 ratings
1 star 2 stars 3 stars 4 stars 5 stars
comments

Wow Tab

Snowpatrol - Wow
Track2 of Final Straw



There are several overdubbed guitars, all with different levels
of distorion and EQ so you'll have to listen to the track to decide
how you want to sound. A smooth valve-type distortion is probably
best though. (snowpatrol probably use Vox and Orange amps - the
guitars are single-coil jobs though, I think).

All the rhythms are aproximate.

Weird Intro bit:

-----x-----xx-----x
---x--x--x-------x-
---x---------------
-x-----------------
-x-----------------
-------------------

---------------------
---------------------
---------------------
--------------------- w/ reverse delay effect
-9-9-9-9-11-11-7-7-7-
-7-7-7-7-9--9--5-5-5-
---------------------

Intro Proper:

Gtr1
-0-0---0-0-0---0--0--0---0-0-0-
-0-0---0-0-0---0--0--0---0-0-0-
-9-9---9-9-9---9--9--9---9-9-9-
-9-9---9-9-9---9--9--9---9-9-9- w/feedback adlib (Gtr3)
-7-7---7-7-7---7--7--7---7-7-7-
-0-0---0-0-0---0--0--0---0-0-0-

Gtr2
-------------------------------
-------------------------------
-9-9---9-9-9---9--9--9---9-9-9-
-------------------------------
-7-7---7-7-7---7--7--7---7-7-7-
-------------------------------

Verse:
Gtr3
-------------------------------|-------------------------------|
-------------------------------|-------------------------------|
-------------------------------|-------------------------------|
-6-6---6-6-6---6--6--6---6-6-6-|-7-7---7-7-7---7--7--7---7-7-7-| 
-6-6---6-6-6---6--6--6---6-6-6-|-7-7---7-7-7---7--7--7---7-7-7-|
-4-4---4-4-4---4--4--4---4-4-4-|-5-5---5-5-5---5--5--5---5-5-5-|
[ Tab from: http://www.guitartabs.cc/tabs/s/snow_patrol/wow_tab_ver_2.html ]
-------------------------------|-------------------------------|
-------------------------------|-------------------------------|
-------------------------------|-------------------------------|
-2-2---2-2-2---2--2--2---2-2-2-|-2-2---2-2-2---2--2--2---2-2-2-| 
-2-2---2-2-2---2--2--2---2-2-2-|-2-2---2-2-2---2--2--2---2-2-2-|
-0-0---0-0-0---0--0--0---0-0-0-|-0-0---0-0-0---0--0--0---0-0-0-|

Gtr2 continues to play the intro riff.
Feedback swells on last time round.

	

Link: 

-------------------------------|
-------------------------------|
-------------------------------|
-2-2---2-2-2---2--2--2---2-2-2-| 
-2-2---2-2-2---2--2--2---2-2-2-|
-0-0---0-0-0---0--0--0---0-0-0-|

Chorus:
				    [1.2.3- - - - - - - - - - - - - - -]
-----------------|-----------------|-----------------|-----------------|
-----------------|-----------------|-----------------|-----------------|
-6-6-6-6-6-6-6-6-|-7-7-7-7-7-7-7-7-|-9-9-9-9-9-9-9-9-|-9---9-9-9-9-9---|
-6-6-6-6-6-6-6-6-|-7-7-7-7-7-7-7-7-|-9-9-9-9-9-9-9-9-|-9---9-9-9-9-9---| 
-4-4-4-4-4-4-4-4-|-5-5-5-5-5-5-5-5-|-7-7-7-7-7-7-7-7-|-7---7-7-7-7-7---|
-----------------|-----------------|-----------------|---------------x\|

[4. - - - - - - - - - - - - - - - -]
-----------------|-----------------|
-----------------|-----------------|
-7-7-7-7-7-7-7-7-|-7-7-7-7-7-7-7-7-|
-7-7-7-7-7-7-7-7-|-7-7-7-7-7-7-7-7-|
-5-5-5-5-5-5-5-5-|-5-5-5-5-5-5-5-5-|
-----------------|-----------------|

	

The rest of the song is based on the above riffs - its not difficult to work out.



The song then ends on D5 which sets up for the start of 
Gleaming Auction (which I'm going away to work on now...)

Hope this is to your liking - I think it's all correct 
- I'm only posting it because I think it's more accurate 
than the current tab.

By Mikeofthechimps - www.chimp66band.tk
Comments