Snow Patrol - Tiny Little Fractures Chords & Tabs

 

Tiny Little Fractures Chords & Tabs

Snow Patrol Chords & Tabs

Version: 1 Type: Tab 0 ratings
1 star 2 stars 3 stars 4 stars 5 stars
comments

Tiny Little Fractures Tab

10. Tiny Little Fractures
[ Tab from: http://www.guitartabs.cc/tabs/s/snow_patrol/tiny_little_fractures_tab.html ]
INTRO and CHORUS
e---------|----------|----------|---------------|-
b---------|----------|----------|---------------|-
g---------|----------|-7--------|---------------|-
D-7-------|-7--------|-7--------|-5-5---5---5-0-|-
A-7-------|-7--------|-5--------|-5-5-0-5-0-5-0-|-
E-5-------|-5--------|----------|-3-3-0-3-0-3---|-

gtr 1(VERSE)
e-----------------------------------
b-----------------------------------
g-----------------------------------
D-----------------------------------
A-----------------------------------
E-5-14-8----------------------------

Play a power chord there if you want a fuller sound.
Comments