Snow Patrol - Starfighter Pilot Chords & Tabs

 

Starfighter Pilot Chords & Tabs

Snow Patrol Chords & Tabs

Version: 1 Type: Tab 0 ratings
1 star 2 stars 3 stars 4 stars 5 stars
comments

Starfighter Pilot Tab

   
##################################################################################
# This file is the author's own work and represents their interpretation of the  #
# song. You may only use this file for private study, scholarship, or research.  #
##################################################################################

SNOW PATROL - Starfighter Pilot

Chords Used:

G#5 466544
B5  799677
A#5 688766
A5  577655
F5  133211
D5  557775
G5  355433
E   022100




All G#5 for a while:

BASS:
G-----------------------------------------
D----------------------------------------- x4
A-----2--------2--------2--------2--------
E-4-4---4--4-4---4--4-4---4--4-4---4------




 G#5                                 B5    A#5   A5
e-----------------------------------------------------
B-----------------------------------------------------
G----------------------------------------------------- 
D-----------------------------------------------------
A-6-6-6-6-6-6-6-6-6-6-6-6-6-6-6-6-/--9-9-9-8-8-8-7-7--
E-4-4-4-4-4-4-4-4-4-4-4-4-4-4-4-4-/--7-7-7-6-6-6-5-5--

[ Tab from: http://www.guitartabs.cc/tabs/s/snow_patrol/starfighter_pilot_tab.html ]
F5       G5      A5                 F5     D5      A5
e------------------------------------------------------------------
B------------------------------------------------------------------
G------------------------------------------------------------------ x2
D-------------------------------------------7-7-7-7----------------
A-3-3-3-3-5-5-5-5-7-7-7-7-7-7-7-7--3-3-3-3--5-5-5-7-7-7-7-7-7-7-7--
E-1-1-1-1-3-3-3-3-5-5-5-5-5-5-5-5--1-1-1-1--------5-5-5-5-5-5-5-5--


G5               F5               E5
e--------------------------------------
B--------------------------------------
G--------------------------------------
D--------------------------------------
A-5-5-5-5-5-5-5-5-3-3-3-3-3-3-3-3--2---
E-3-3-3-3-3-3-3-3-1-1-1-1-1-1-1-1--0---
 

BASS FILL:
G------------------------------------
D------------------------------------
A-7-5---5--5^7---------7-5---5-------
E-----7--7------0-0-0------7---7-----

INTRO Again

Verse 2

Straight into verse three, no chorus no NUFFINK!

Verse 3

Then:

G#5                                   E5
G-------------------------------------------------------------------------------
D-------------------------------------------------------------------------------
A-----2--------2--------2--------2--------------7--5--7----------------7--5--7--
E-4-4---4--4-4---4--4-4---4--4-4---4---0--0--0-----------7-/--0--0--0-----------

 G#5                                   E5
G-------------------------------------------------------------------------------
D-------------------------------------------------------------------------------
A-----2--------2--------2--------2-------------7-5---5---5^7-------7-5---5------
E-4-4---4--4-4---4--4-4---4--4-4---4---0-0-0-------7---7-----0-0-0-----7---7----


  la la la la la la             la la la la la  

To fade.......
Comments