Snow Patrol - Spitting Games Chords & Tabs

 

Spitting Games Chords & Tabs

Snow Patrol Chords & Tabs

Version: 5 Type: Tab 0 ratings
1 star 2 stars 3 stars 4 stars 5 stars
comments

Spitting Games Tab

[ive/Acoutic]

INTRO

Guitar 1:

E------------|-------------|-------------|------------|
B------------|-------------|-------------|------------|
G---7--------|------4------|-------------|------------|
D---7--------|------4------|------4------|------5-----|  (x2)
A---5--------|------2------|------4------|------5-----|
E---X--------|------X------|------2------|------3-----|

Guitar 2:

E---------------------------------------|
B---------------------------------------|
G----9h11---------9h11------------------| (x2)
D-------------9h7----------9/7/12-------|
A---------------------------------------|
E---------------------------------------|

VERSE

Guitar 1:

E------------|-------------|-------------|--------------|
B------------|-------------|-------------|--------------|
G---7--------|-----5-------|------4------|--------------|
D---7--------|-----5-------|------4------|------5-------|  (x4)
A---5--------|-----3-------|------2------|------5-------|
E---X--------|-----X-------|------X------|------3-------|

Guitar 2:
[ Tab from: http://www.guitartabs.cc/tabs/s/snow_patrol/spitting_games_tab_ver_5.html ]
E----3--0-------------|
B----4--4-------------|     (Strum Rapidly)
G----2--2-------------|    (Repeat Over and Over until You reach chorus)
D---------------------|
A---------------------|
E---------------------|

BRIDGE

Guitar 1:

E------------|------------|--------------|
B------------|------------|--------------|
G------------|------------|------7-------|
D---3-------|-----5-------|------7-------|
A---3-------|-----5-------|------5-------|
E---1-------|-----3-------|------X-------|

Guitar 2:

I have know idea but the guitars sound the same


The Intro Above Is Played live with acoustic guitars
--------------------------------------------------------------
The Intro below is on the one played in the studio,Verse is the same but not sure on the bridge.

INTRO (Music Video/Album Version)

Guitar 1:

E----3--0-------------|
B----4--4-------------|     (Strum Rapidly)
G----2--2-------------|    (Repeat Over and Over until You reach chorus)
D---------------------|
A---------------------|
E---------------------|

Guitar 2:

E---------------------------------------|
B---------------------------------------|
G----9h11---------9h11------------------| (x2)
D-------------9h7----------9/7/12-------|
A---------------------------------------|
E---------------------------------------|

If you find mistakes P.M me Cuz im on a hurry to go to sleep and Visit Mtv.com to View thier music video
(the live M.V.)
Comments