Snow Patrol - Spitting Games Chords & Tabs

 

Spitting Games Chords & Tabs

Snow Patrol Chords & Tabs

Version: 4 Type: Tab 0 ratings
1 star 2 stars 3 stars 4 stars 5 stars
comments

Spitting Games Tab

   
Song: Spitting Games
Artist: Snow Patrol
Tabbed By: Trent Steel

Guitar 1 = Gary Lightbody
Guitar 2 = Nathan Connolly
Bass	 = Mark McClelland
Drums	 = Jonny Quinn


r = ring
~ = vibrate
b = bend
/ = slide
pm= palm mute


Intro:

 Guitar 1
e|------------------------------------------------------------| 
B|------------------------------------------------------------| 
G|-7-7-7-7-9-9-9-9-11-11-11-11-12-12-12-12--------------------|  x2
D|-7-7-7-7-9-9-9-9-11-11-11-11-12-12-12-12--------------------|
A|-5-5-5-5-7-7-7-7--9--9--9--9-10-10-10-10--------------------|
E|------------------------------------------------------------|


 Guitar 2
e|------------------------------------------------------------|
B|--5/7~~-------------------5/7~~-----------------------------|
G|--------------4-2-------------------4-2-7~~-----------------|  x2
D|------------------------------------------------------------|
A|------------------------------------------------------------|
E|------------------------------------------------------------|
 

 Bass		
G|-------------------------------------------------------------------|
D|-------------------------------------------------------------------| x2
A|-555555555555-7777777777777777-9999999999999999-101010101010101010-|
E|-------------------------------------------------------------------|
 



Main Riff:

[ Tab from: http://www.guitartabs.cc/tabs/s/snow_patrol/spitting_games_tab_ver_4.html ]
 Guitar 1&2	"I broke into your house last night"
e|------------------------------------------------------------| 
B|------------------------------------------------------------| 
G|-7-7-7-7-5-5-5-5-4-4-4-4------------------------------------|  x2
D|-7-7-7-7-5-5-5-5-4-4-4-4-5-5-5-5----------------------------|
A|-5-5-5-5-3-3-3-3-2-2-2-2-5-5-5-5----------------------------|
E|-------------------------3-3-3-3----------------------------|


 Bass
G|-----------------------------------------------------------------|
D|-----------------------------------------------------------------|
A|-555555555555-33333333333333-2222222222222-----------------------|
E|------------------------------------------333333333333333--------|




Riff 2:

 Guitar 1&2	"I struggle for the words and then give up"
e|------------------------------------------------------------| 
B|------------------------------------------------------------| 
G|-------------------------7-7-7-7-7-7-7----------------------|  x2
D|-3-3-3-3-3-3-5-5-5-5-5-5-7-7-7-7-7-7-7----------------------|
A|-3-3-3-3-3-3-5-5-5-5-5-5-5-5-5-5-5-5-5----------------------|
E|-1-1-1-1-1-1-3-3-3-3-3-3------------------------------------|



 Bass
G|------------------------------------------------------------------|
D|------------------------------------------------------------------|
A|-88888888888888888-10101010101010101010-555555555555555-----------|
E|------------------------------------------------------------------|
Comments